Song name
# A B C D E F G H I J K L M N O P Q R S T U V W X Y Z

Misc Unsigned Bands - A Direst Desire - Bury Our Best tab

-------------------------------------------------------------------------------
     Bury Our Best - a Direst Desire
-------------------------------------------------------------------------------
Tabbed by: Michael Beatson
E-mail: michaeljbeatson@gmail.com

Tuning: DGCFAd


Intro: Guitar 1

   Am                  C                 G                 Em
e|-----------------------------------------------------------------------------|
B|-----------------------------------------------------------------------------|
G|---------0h2----------------0h2---2p0---------0h2----------------------------|
D|-----0h2-----0---0h2----0h2-----0----0----0h2-----0--0-----------------------|
A|--0-0---0---0--0-----3-3---3---3-----------------------------2-2/3-3b-3\2b-0-|
E|---------------------------------------3-3---3---3--3----0-0--0---0----0-----|

Intro: Guitar 2 - Tremolo picking w/ wet reverb

e|---------------------------------------------------------------------------|
B|---13-----------15br---15br---15br---17br----------------------------------|
G|---------------------------------------------------------------------------|
D|-Pre-Roll------------------------------------------------------------------|
A|---------------------------------------------------------------------------|
E|---------------------------------------------------------------------------|


Verse 1: Guitar 1

Am, C, G, Em - Repeated.

Verse 1: Guitar 2 - Same as Intro.


Post Verse 1: Guitar 1 & 2: Same As Intro

Post Verse 1: Guitar 3: Same as Verse Guitar 1.


Verse 2: Guitar 1 & 2: Same as Verse 1.


Post Verse 2: Guitar 1: strum out Intro chords

Post Verse 2: Guitar 2: Same as intro


Chorus: Guitar 1

e|--0------0------0------0---0-----------------------------------------------|
B|--3------0------0------0---0-----------------------------------------------|
G|--0------0------0------0---0-0---------------------------------------------|
D|--2------5------9------7---4-0------x2-------------------------------------|
A|--3------7-----10------9---5-2---------------------------------------------|
E|---------------------------------------------------------------------------|

Chorus: Guitar 2: Same as Guiar 1 but single ring outs with wet reverb


Post Chorus: Guitar 1:  Am - Repeated

Post Chorus: Guitar 2 - Tremolo picked w/ Reverb

e|-----------15-14--------17---19br------------------------------------------|
B|---17------------15--------------------------------------------------------|
G|---------------------------------------------------------------------------|
D|---------------------------------------------------------------------------|
A|---------------------------------------------------------------------------|
E|---------------------------------------------------------------------------|


Outro: Guitar 1: Same as Verse 1




************************************

| /   slide up
| \   slide down
| h   hammer-on
| p   pull-off
| ~   vibrato
| +   harmonic
| x   Mute note
| b   Bend
| pb  Pre-bend
| br  Bend release
| pbr Pre-bend release
| brb Bend release bend

************************************
Tap to rate this tab
 
# A B C D E F G H I J K L M N O P Q R S T U V W X Y Z