Song name
# A B C D E F G H I J K L M N O P Q R S T U V W X Y Z

Misc Unsigned Bands - For What Its Worth - For What Its Worth tab

First song by my band
Drop D tuning
/ = slide
* = palm mute
h = hammer on
p = pull off
_ = sustain note

Intro/Chorus X2
-------------------------------|
-------------------------------|
---------------7---7-7-7-7-7-7-|    X3
-0---0-0-4/5p0-----------------|
-0---0-0-4/5p0-5---5-5-5-5-5-5-|
-0---0-0-4/5p0-----------------|

---------------------------------|
---------------------------------|
---------------------------------|   X1
-2---2-2-4---4-4-5---5-5-7---7-7-|
-2---2-2-4---4-4-5---5-5-7---7-7-|
-2---2-2-4---4-4-5---5-5-7---7-7-|
     *       *       *       *

Verse X4
---------------------------------------------------------------|
---------------------------------------------------------------|
---------------------------------7---7---7-7-7-----------------|
-9---9---9-9-9-5---5-5---5-5-5-5---------------7---7-7---7-7-7-|
-9---9---9-9-9-5---5-5---5-5-5-5-5---5---5-5-5-7---7-7---7-7-7-|
-9---9---9-9-9-5---5-5---5-5-5-5---------------7---7-7---7-7-7-|


*PLAY THE CHORUS AND VERSE THROUGH ONE MORE TIME*


Bridge X1
-------------------------------|
-------------------------------|
---------------7---7-7-7-7-7-7-|   X3
-0---0-0-4/5p0-----------------|
-0---0-0-4/5p0-5---5-5-5-5-5-5-|
-0---0-0-4/5p0-----------------|

---------------------------------|
---------------------------------|
---------------------------------|   X3
-2---2-2-4---4-4-5---5-5-7---7-7-|
-2---2-2-4---4-4-5---5-5-7---7-7-|
-2---2-2-4---4-4-5---5-5-7---7-7-|
     *       *       *       *

Interlude X1
---------------------------------|
---------------------------------|
---------------------------------|   X2
-0___________4h5-2___________4h5-|
-0___________4h5-2___________4h5-|
-0___________4h5-2___________4h5-|

---------------------------------|
---------------------------------|
---------------------------------|   X4
-0___000000004h5-2___222222224h5-|
-0___000000004h5-2___222222224h5-|
-0___000000004h5-2___222222224h5-|
     ********        ********

Outro X1
-------------------------------|
-------------------------------|
---------------7---7-7-7-7-7-7-|   X3
-0---0-0-4/5p0-----------------|
-0---0-0-4/5p0-5---5-5-5-5-5-5-|
-0---0-0-4/5p0-----------------|

---------------------------------|
---------------------------------|
---------------------------------|   X3
-2---2-2-4---4-4-5---5-5-7---7-7-|
-2---2-2-4---4-4-5---5-5-7---7-7-|
-2---2-2-4---4-4-5---5-5-7---7-7-|
     *       *       *       *

*END ON AN OPEN D*

That's that hope you guys like it!
Tap to rate this tab
# A B C D E F G H I J K L M N O P Q R S T U V W X Y Z