Song name
# A B C D E F G H I J K L M N O P Q R S T U V W X Y Z

Misc Unsigned Bands - Stephen Waegele- The End tab

E|---------------------------------------------|
B|---------------------------------------------|
G|---------------------------------------------|
D|---------------------------------------------|
A|---------------------------------------------|
E|--2--2--2--0--0--0--5--5--5--0--0--0.  Play--| x2



E|-----------------------3--5--8--5------------------------------|
B|--------4--------4--6--------------8--8--10--8--6--4-----------|
G|--4--6-----4--6---------------------------------------6--6--4--|
D|---------------------------------------------------------------|
A|---------------------------------------------------------------|
E|---------------------------------------------------------------|
-main riff- (Repeat throughout song)


E|----------------------------------------------------|
B|----------------------------------------------------|
G|-------------------5-----------4--------------------|
D|---4---2---4---7-------8---6-------7---4---4---2----|
A|----------------------------------------------------|
E|----------------------------------------------------|

(Background beat after about 45 seconds in)

Repeat until drop then on drop play main riff in two note power chord
Tap to rate this tab
 
# A B C D E F G H I J K L M N O P Q R S T U V W X Y Z