Song name
# A B C D E F G H I J K L M N O P Q R S T U V W X Y Z

Misc Unsigned Bands - German Dog Eaters - Dickbutt tab

Dickbutt.txt

h   = Hammer On
p   = Pull Off
/   = Slide Up
\   = Slide Down
( ) = Palm Mute
< > = Natural Harmonic



D  :------------------|------------------|-------------------|
A  :------------------|------------------|-------------------|
F  :------------------|------------------|-------------------|
C  :------------------|------7---5-h7-p0-|-------------------|
G  :0-----5-h8-p5-----|------------------|5---------5--------|
C  :0---0---------7-7-|8---8---8---------|5---5-5-5-5---5-5-5|

D  :--------------------|------------------|------------------|
A  :--------------------|------------------|------------------|
F  :--------------------|------------------|------------------|
C  :----7-5-7-/10-\7-p0-|------------------|------7---5-h7-p0-|
G  :5-------------------|0-----5-h8-p5-----|------------------|
C  :5-------------------|0---0---------7-7-|8---8---8---------|

D  :-------------------|--------------------|------------------|
A  :-------------------|--------------------|------------------|
F  :-------------------|--------------------|------------------|
C  :-------------------|----7-5-7-/10-\7-p0-|------------------|
G  :5---------5--------|5-------------------|0-----5-h8-p5-----|
C  :5---5-5-5-5---5-5-5|5-------------------|0---0---------7-7-|

D  :------------------|-------------------|--------------------|
A  :------------------|-------------------|--------------------|
F  :------------------|-------------------|--------------------|
C  :------7---5-h7-p0-|-------------------|----7-5-7-/10-\7-p0-|
G  :------------------|5---------5--------|5-------------------|
C  :8---8---8---------|5---5-5-5-5---5-5-5|5-------------------|

D  :------------------|------------------|-------------------|
A  :------------------|------------------|-------------------|
F  :------------------|------------------|-------------------|
C  :------------------|------7---5-h7-p0-|-------------------|
G  :0-----5-h8-p5-----|------------------|5---------5--------|
C  :0---0---------7-7-|8---8---8---------|5---5-5-5-5---5-5-5|

D  :--------------------|----------------------------------|
A  :--------------------|----------------------------------|
F  :--------------------|----------------------------------|
C  :----7-5-7-/10-\7-p0-|----------------------------------|
G  :5-------------------|0---------------------------------|
C  :5-------------------|0---(0)-(0)(0)(0)-(0)(0)(0)-(0)(0)|

D  :------------------------------------|
A  :------------------------------------|
F  :------------------------------------|
C  :------------------------------------|
G  :------------------------------------|
C  :(0)---(0)-(0)(0)(0)-(0)(0)(0)-(0)(0)|

D  :------------------------------------|---------------------------|
A  :------------------------------------|---------------------------|
F  :------------------------------------|---------------------------|
C  :------------------------------------|---------------------------|
G  :------------------------------------|---------------------------|
C  :(0)---(0)-(0)(0)(0)-(0)(0)(0)-(0)(0)|(0)---(0)-(0)(0)(0)-/8-8-8-|

D  :----------------------------------|------------------------------------|
A  :----------------------------------|------------------------------------|
F  :----------------------------------|------------------------------------|
C  :----------------------------------|------------------------------------|
G  :3---------------------------------|------------------------------------|
C  :3---(3)-(3)(3)(3)-(3)(3)(3)-(3)(3)|(3)---(3)-(3)(3)(3)*(3)(3)(3)*(3)(3)|

D  :------------------------------------|--------------------------|
A  :------------------------------------|--------------------------|
F  :------------------------------------|----------------------7-x-|
C  :------------------------------------|----------------------7-x-|
G  :------------------------------------|--------------------5---x-|
C  :(3)*--(3)-(3)(3)(3)*(3)(3)(3)*(3)(3)|(3)---(3)-(3)(3)(3)-5---x-|

D  :----------------------------------|------------------------------------|
A  :----------------------------------|------------------------------------|
F  :----------------------------------|------------------------------------|
C  :----------------------------------|------------------------------------|
G  :0---------------------------------|------------------------------------|
C  :0---(0)-(0)(0)(0)-(0)(0)(0)-(0)(0)|(0)---(0)-(0)(0)(0)-(0)(0)(0)-(0)(0)|

D  :------------------------------------|---------------------------|
A  :------------------------------------|---------------------------|
F  :------------------------------------|---------------------------|
C  :------------------------------------|---------------------------|
G  :------------------------------------|---------------------------|
C  :(0)---(0)-(0)(0)(0)-(0)(0)(0)-(0)(0)|(0)---(0)-(0)(0)(0)-/8-8-8-|

D  :----------------------------------|------------------------------------|
A  :----------------------------------|------------------------------------|
F  :----------------------------------|------------------------------------|
C  :----------------------------------|------------------------------------|
G  :3---------------------------------|------------------------------------|
C  :3---(3)-(3)(3)(3)-(3)(3)(3)-(3)(3)|(3)---(3)-(3)(3)(3)*(3)(3)(3)*(3)(3)|

D  :------------------------------------|--------------------------|
A  :------------------------------------|--------------------------|
F  :------------------------------------|----------------------7-x-|
C  :------------------------------------|----------------------7-x-|
G  :------------------------------------|--------------------5---x-|
C  :(3)*--(3)-(3)(3)(3)*(3)(3)(3)*(3)(3)|(3)---(3)-(3)(3)(3)-5---x-|

D  :------------------|------------------|-------------------|
A  :------------------|------------------|-------------------|
F  :------------------|------------------|-------------------|
C  :------------------|------7---5-h7-p0-|-------------------|
G  :0-----5-h8-p5-----|------------------|5---------5--------|
C  :0---0---------7-7-|8---8---8---------|5---5-5-5-5---5-5-5|

D  :--------------------|------------------|------------------|
A  :--------------------|------------------|------------------|
F  :--------------------|------------------|------------------|
C  :----7-5-7-/10-\7-p0-|------------------|------7---5-h7-p0-|
G  :5-------------------|0-----5-h8-p5-----|------------------|
C  :5-------------------|0---0---------7-7-|8---8---8---------|

D  :-------------------|--------------------|------------------|
A  :-------------------|--------------------|------------------|
F  :-------------------|--------------------|------------------|
C  :-------------------|----7-5-7-/10-\7-p0-|------------------|
G  :5---------5--------|5-------------------|0-----5-h8-p5-----|
C  :5---5-5-5-5---5-5-5|5-------------------|0---0---------7-7-|

D  :------------------|-------------------|--------------------|
A  :------------------|-------------------|--------------------|
F  :------------------|-------------------|--------------------|
C  :------7---5-h7-p0-|-------------------|----7-5-7-/10-\7-p0-|
G  :------------------|5---------5--------|5-------------------|
C  :8---8---8---------|5---5-5-5-5---5-5-5|5-------------------|

D  :------------------|------------------|-------------------|
A  :------------------|------------------|-------------------|
F  :------------------|------------------|-------------------|
C  :------------------|------7---5-h7-p0-|-------------------|
G  :0-----5-h8-p5-----|------------------|5---------5--------|
C  :0---0---------7-7-|8---8---8---------|5---5-5-5-5---5-5-5|

D  :--------------------|----------------|----------------|
A  :--------------------|----------------|----------------|
F  :--------------------|----------------|----------------|
C  :----7-5-7-/10-\7-p0-|----------------|----------------|
G  :5-------------------|0-0---0-2-2---2-|3-3---3-5-5---8-|
C  :5-------------------|0-0---0-2-2---2-|3-3---3-5-5---8-|

D  :---------------------|----------------|----------------|
A  :---------------------|----------------|----------------|
F  :--10-10---10-10---10-|--5-5---5-5---5-|----------------|
C  :--10-10---10-10---10-|--5-5---5-5---5-|----------------|
G  :---------------------|----------------|0-0---0-2-2---2-|
C  :---------------------|----------------|0-0---0-2-2---2-|

D  :----------------|---------------------|----------------|
A  :----------------|---------------------|----------------|
F  :----------------|--10-10---10-10---10-|--5-5---5-5---5-|
C  :----------------|--10-10---10-10---10-|--5-5---5-5---5-|
G  :3-3---3-5-5---8-|---------------------|----------------|
C  :3-3---3-5-5---8-|---------------------|----------------|

D  :----------------|----------------|---------------------|
A  :----------------|----------------|---------------------|
F  :----------------|----------------|--10-10---10-10---10-|
C  :----------------|----------------|--10-10---10-10---10-|
G  :0-0---0-2-2---2-|3-3---3-5-5---8-|---------------------|
C  :0-0---0-2-2---2-|3-3---3-5-5---8-|---------------------|

D  :----------------|----------------|----------------|
A  :----------------|----------------|----------------|
F  :--5-5---5-5---5-|----------------|----------------|
C  :--5-5---5-5---5-|----------------|----------------|
G  :----------------|0-0---0-2-2---2-|3-3---3-5-5---8-|
C  :----------------|0-0---0-2-2---2-|3-3---3-5-5---8-|

D  :---------------------|--x-<5>-----------|------------------|
A  :---------------------|--x-<5>-----------|------------------|
F  :--10-10---10-10---10-|--x-<5>-----------|------------------|
C  :--10-10---10-10---10-|--x-<5>-----------|------------------|
G  :---------------------|------------------|0-----5-h8-p5-----|
C  :---------------------|------------------|0---0---------7-7-|

D  :------------------|-------------------|--------------------|
A  :------------------|-------------------|--------------------|
F  :------------------|-------------------|--------------------|
C  :------7---5-h7-p0-|-------------------|----7-5-7-/10-\7-p0-|
G  :------------------|5---------5--------|5-------------------|
C  :8---8---8---------|5---5-5-5-5---5-5-5|5-------------------|

D  :------------------|------------------|-------------------|
A  :------------------|------------------|-------------------|
F  :------------------|------------------|-------------------|
C  :------------------|------7---5-h7-p0-|-------------------|
G  :0-----5-h8-p5-----|------------------|5---------5--------|
C  :0---0---------7-7-|8---8---8---------|5---5-5-5-5---5-5-5|

D  :--------------------|------------------|------------------|
A  :--------------------|------------------|------------------|
F  :--------------------|------------------|------------------|
C  :----7-5-7-/10-\7-p0-|------------------|------7---5-h7-p0-|
G  :5-------------------|0-----5-h8-p5-----|------------------|
C  :5-------------------|0---0---------7-7-|8---8---8---------|

D  :-------------------|--------------------|------------------|
A  :-------------------|--------------------|------------------|
F  :-------------------|--------------------|------------------|
C  :-------------------|----7-5-7-/10-\7-p0-|------------------|
G  :5---------5--------|5-------------------|0-----5-h8-p5-----|
C  :5---5-5-5-5---5-5-5|5-------------------|0---0---------7-7-|

D  :------------------|-------------------|--------------------|
A  :------------------|-------------------|--------------------|
F  :------------------|-------------------|--------------------|
C  :------7---5-h7-p0-|-------------------|----7-5-7-/10-\7-p0-|
G  :------------------|5---------5--------|5-------------------|
C  :8---8---8---------|5---5-5-5-5---5-5-5|5-------------------|
Tap to rate this tab
# A B C D E F G H I J K L M N O P Q R S T U V W X Y Z