Song name
# A B C D E F G H I J K L M N O P Q R S T U V W X Y Z

Misc Unsigned Bands - Ina - I Wanted You chords

Highlighted       Show chord diagrams
-------------------------------------------------------------------------------
                               Ina - I wanted You

-------------------------------------------------------------------------------
Tabbed By : xiTiz/(_)L

Tuning : Standard

Note: Capo on 2nd Fret
 
*s = Slide

Chords :
   F    G    Em   Am     
e|-1----3----0----0-------|
b|-1----3----0----1-------|
g|-2----4----0----2-------|
d|-3----5----2----2-------|
a|-3----5----2----0-------|
e|-1----3----0----0-------|

Here is the video cover I did for this song :-
http://youtu.be/KVB_IBpTLUA

Youtube:
http://www.youtube.com/user/xitizhnn

Ultimate-Guitar:
http://profile.ultimate-guitar.com/Xitiz+Rana/

Enjoyy~!^ ^ 
-------------------------------------------------------------------------------

~~~~~~
Intro:
~~~~~~

( F G Em Am )-For Rhythm

e |---3-1-0-----1s3--------------3-1-0-----------------|
b |---------3-1-----1-1--1s3-3---------3-1--1----------|
g |-------------------------------------------0-0s2----|
d |----------------------------------------------------|
a |----------------------------------------------------|
e |----------------------------------------------------|

( F G Am )

e |---3-1-0-----1s3----------------0-1-0--0-----------|
b |---------3-1-----1-1--1s3-3---3-----------1-1s3-1--|
g |---------------------------------------------------|
d |---------------------------------------------------|
a |---------------------------------------------------|
e |---------------------------------------------------|



~~~~~~
Verse:
~~~~~~
F                 G 
 Lately I've been thinking 'bout wat i can do
Em                   Am
 I've been stressing to fall back in love with you
F               G
 I'm so sorry that I couldn't follow through
    Am
But I can't go on this way
I've got to stop it babe
F                  G  
 You've been wonderful in all that you can be
Em               Am
 But it hurts when you say that you understand me
F           G                 Am
 So believe me I, I am sorry I.. I am sorry I, I

~~~~~~~
Chorus:
~~~~~~~
                F              G
I wanted you to be there when I fall
                Em             Am
I wanted you to see me through it all
                F           G
I wanted you to be the one I love
           Am
I wanted you, I wanted you
                F            G
I wanted you to hold me in my sleep
                Em           Am
I wanted you to show me what I need
                F               G 
I wanted you to know just how down deep
          Am
I wanted you, I wanted you

~~~~~~
Verse:
~~~~~~
F                   G
 I've been pushing hard to open up the door
Em                 Am
 Trying to take us back to where we were before
F                 G
 But I'm done I just can't do this anymore
      Am
Cause we can't be mended
So let's stop pretending now
F                   G
 We've been walking round in circles for some time
Em           Am 
 And I think we should head for the finish line
F           G                 Am
 So believe me I, I am sorry I.. I am sorry I, I

~~~~~~~
Chorus:
~~~~~~~
                F              G
I wanted you to be there when I fall
                Em             Am
I wanted you to see me through it all
                F           G
I wanted you to be the one I love
           Am
I wanted you, I wanted you
                F            G
I wanted you to hold me in my sleep
                Em           Am
I wanted you to show me what I need
                F               G 
I wanted you to know just how down deep
          Am
I wanted you, I wanted you

~~~~~~~
Bridge:
~~~~~~~

F
I, I I'm so sorry baby but
G
I, I I've got to pack up and leave but
F                                   G
I, I'll always remember how we came close 
                          F  G
to being what I wanted to be
             Em  Am
I wanted you baby
   F  G
Oooooh   Am
I wanted you I wanted you

~~~~~~~
Chorus:
~~~~~~~
                F              G
I wanted you to be there when I fall
                Em             Am
I wanted you to see me through it all
                F           G
I wanted you to be the one I love
           Am
I wanted you, I wanted you
                F            G
I wanted you to hold me in my sleep
                Em           Am
I wanted you to show me what I need
                F               G 
I wanted you to know just how down deep
          Am
I wanted you, I wanted you

~~~~~~
Outro: (Same as in Intro)
~~~~~~

-------------------------------------------------------------------------------
~End~
Tap to rate this tab
 
# A B C D E F G H I J K L M N O P Q R S T U V W X Y Z