Song name
# A B C D E F G H I J K L M N O P Q R S T U V W X Y Z

Misc Unsigned Bands - Asdf Movie - Trololol Song tab

-----------------------------------------------------------------------------
                TROLOLOL - Edition from some strange Asdf Movie
-----------------------------------------------------------------------------
Tabbed by: Hanf
E-mail: hali271298@gmail.com

Stimmung/Tuning: Standard

Die Zahlen stehen für die Notenlängen (2= halbe Note, 4.= punktierte Viertel-
note, 2+8= Halbe plus Achtel, das Plus steht quasi für einen Haltebogen; etc.pp.)

The numbers above stand for the length of the notes.

   Taktart/Time Signature: 4/4
   Tempo: 118 BPM                  Tempo: 180 BPM
   |                               |
   2+8 8 8 1616+2. 8 8   2 2   4 2 8 8   8 8 8 8 4 8 8   4 8 8 2
e|-------------|-------|-----|---------|---------------|---------|
B|-------------|-------|-----|---------|-----0-1-0-0---|---------|
G|-0-----------|-------|---0-|---------|-0-2---------0-|-2-2---0-|
D|-----4-2-0-2-|-2---0-|-2---|-2-0-2-3-|---------------|-----3---|
A|-------------|---3---|-----|---------|---------------|---------|
E|-------------|-------|-----|---------|---------------|---------|

   8 8 8 8 2   8 8 8 8 4 8 8   8 8 8 8 4 8 8   4 8 8 2
e|-----------|---------------|---------------|---------|
B|-----------|---------------|-----0-1-0-0---|---------|
G|-------0---|-0-0-0-0-0-----|-0-2---------0-|-2-2---0-|
D|-0-2-3---2-|-----------2-3-|---------------|-----3---|
A|-----------|---------------|---------------|---------|
E|-----------|---------------|---------------|---------|

   8 8 8 8 2   8 8 8 8 2   8 8 8 8 2   8 8 8 8 2
e|-----------|-----------|---------0-|---------0-|
B|-----0-2-3-|-----0-2-3-|---0-2-4---|---0-2-4---|
G|-0-2-------|-0-2-------|-2---------|-2---------|
D|-----------|-----------|-----------|-----------|
A|-----------|-----------|-----------|-----------|
E|-----------|-----------|-----------|-----------|

   Tempo- und Taktwechsel!
   Tempo and time change!
   Tempo=118BPM                Tempo=124BPM  Tempo=132BPM
   Taktart/Time Signature=6/8  |             |
   |                           |             |
   8 8 8 8 8 8   8 8 8 8 8 8   8 8 8 8 8 8   8 8 8 4.
e|-------0-----|-------0-----|-------0-----|-------0-|
B|-0-2-4---4-2-|-0-2-4---4-2-|-0-2-4---4-2-|-0-2-4---|
G|-------------|-------------|-------------|---------|
D|-------------|-------------|-------------|---------|
A|-------------|-------------|-------------|---------|
E|-------------|-------------|-------------|---------|
Tap to rate this tab
# A B C D E F G H I J K L M N O P Q R S T U V W X Y Z