Song name
# A B C D E F G H I J K L M N O P Q R S T U V W X Y Z

Misc Unsigned Bands - Rac - Hollywood tab

RAC - Hollywood (featuring Penguin Prison)

Tuning: Standard

(This is all the Bass does throughout the song)
G|-----------------------------------------------------------------|
D|-----------------------------------------------------------------|
A|-8---------------------------------------------------------------|
E|---11(11)--99---44-----------------------------------------------|
X2

e|-8-----1111----9--9----44-------------8-----1111----9--9---------|
B|-9-----1111----9--9----44-------------9-----1111----9--9---------|
G|-10----1212----10-10---55-------------10----1212----10-10--------|
D|-10----1313----11-11---66-------------10----1313----11-11--------|
A|-8-----1313----11-11---66-------------8-----1313----11-11--------|
E|-------1111----9--9----44-------------------1111----9--9---------|
              x4                                   X1


e|-8-----1111----9--9----44-------------8-----1111----9--9---------|
B|-9-----1111----9--9----44-------------9-----1111----9--9---------|
G|-10----1212----10-10---55-------------10----1212----10-10--------|
D|-10----1313----11-11---66-------------10----1313----11-11--------|
A|-8-----1313----11-11---66-------------8-----1313----11-11--------|
E|-------1111----9--9----44-------------------1111----9--9---------|
              x3                                   X1


e|-----------------------------------------------------------------|
B|-----13----------------13-------------13-------------------------|
G|--15^---15-13-------15^--15-13-----15^--15-13--------------------|
D|-------------1313--------------13------------1313----13----------|
A|---------------------------------------------------16--1615------|
E|-----------------------------------------------------------------|
Just a slight bend

e|-----------------------------------------------------------------|
B|-----13----------------13-------------13-------------------------|
G|--15^---15-13-------15^--15-13-----15^--15-13--------------------|
D|-------------1313--------------13------------1313----13----------|
A|---------------------------------------------------16--1615------|
E|-----------------------------------------------------------------|
|
e|-8-----1111----9--9----44----------------------------------------|
B|-9-----1111----9--9----44----------------------------------------|
G|-10----1212----10-10---55----------------------------------------|
D|-10----1313----11-11---66----------------------------------------|
A|-8-----1313----11-11---66----------------------------------------|
E|-------1111----9--9----44----------------------------------------|


e|-8-----8------8------8-------------------------------------------|
B|-9-----9------9------9-------------------------------------------|
G|-------10-----10-----10------------------------------------------|
D|--------------10-----10------------------------------------------|
A|---------------------8-------------------------------------------|
E|-----------------------------------------------------------------|
heavy palm mute and gradually lift into finally hitting Fm once 


e|-8-----1111----9--9----44-------------8-----1111----9--9---------|
B|-9-----1111----9--9----44-------------9-----1111----9--9---------|
G|-10----1212----10-10---55-------------10----1212----10-10--------|
D|-10----1313----11-11---66-------------10----1313----11-11--------|
A|-8-----1313----11-11---66-------------8-----1313----11-11--------|
E|-------1111----9--9----44-------------------1111----9--9---------|
              x2                                   X1

e|-8-----1111----9--9----44-------------8-----1111----9--9---------|
B|-9-----1111----9--9----44-------------9-----1111----9--9---------|
G|-10----1212----10-10---55-------------10----1212----10-10--------|
D|-10----1313----11-11---66-------------10----1313----11-11--------|
A|-8-----1313----11-11---66-------------8-----1313----11-11--------|
E|-------1111----9--9----44-------------------1111----9--9---------|
              x3                                   X1

e|-----------------------------------------------------------------|
B|-----13----------------13-------------13-------------------------|
G|--15^---15-13-------15^--15-13-----15^--15-13--------------------|
D|-------------1313--------------13------------1313----13----------|
A|---------------------------------------------------16--1615------|
E|-----------------------------------------------------------------|
|
e|-8-----1111----9--9----44----------------------------------------|
B|-9-----1111----9--9----44----------------------------------------|
G|-10----1212----10-10---55----------------------------------------|
D|-10----1313----11-11---66----------------------------------------|
A|-8-----1313----11-11---66----------------------------------------|
E|-------1111----9--9----44----------------------------------------|
x2


-break-


e|-8-----1111----9--9----44-------------8-----1111----9--9---------|
B|-9-----1111----9--9----44-------------9-----1111----9--9---------|
G|-10----1212----10-10---55-------------10----1212----10-10--------|
D|-10----1313----11-11---66-------------10----1313----11-11--------|
A|-8-----1313----11-11---66-------------8-----1313----11-11--------|
E|-------1111----9--9----44-------------------1111----9--9---------|
              x3                                   X1


e|-8-----1111----9--9----44-------------8-----1111----9--9---------|
B|-9-----1111----9--9----44-------------9-----1111----9--9---------|
G|-10----1212----10-10---55-------------10----1212----10-10--------|
D|-10----1313----11-11---66-------------10----1313----11-11--------|
A|-8-----1313----11-11---66-------------8-----1313----11-11--------|
E|-------1111----9--9----44-------------------1111----9--9---------|
              x3                                   X1


e|-----------------------------------------------------------------|
B|-----13----------------13-------------13-------------------------|
G|--15^---15-13-------15^--15-13-----15^--15-13--------------------|
D|-------------1313--------------13------------1313----13----------|
A|---------------------------------------------------16--1615------|
E|-----------------------------------------------------------------|
|
e|-8-----1111----9--9----44-------------8-----1111----9--9---------|
B|-9-----1111----9--9----44-------------9-----1111----9--9---------|
G|-10----1212----10-10---55-------------10----1212----10-10--------|
D|-10----1313----11-11---66-------------10----1313----11-11--------|
A|-8-----1313----11-11---66-------------8-----1313----11-11--------|
E|-------1111----9--9----44-------------------1111----9--9---------|
              x2                                   X1


Extra: If you're doing the "Felix Da Housecat Remix" ignore the little solo

************************************

| /   slide up
| \   slide down
| h   hammer-on
| -   Palm Mute
| p   pull-off
| ~   vibrato
| +   harmonic
| x   Mute note
| ^   Bend
| pb  Pre-bend
| br  Bend release
| pbr Pre-bend release
| brb Bend release bend

************************************
Tap to rate this tab
# A B C D E F G H I J K L M N O P Q R S T U V W X Y Z