Song name
# A B C D E F G H I J K L M N O P Q R S T U V W X Y Z

Misc Unsigned Bands - The Purveyors Of Quality Meat - Velociraptor Man tab

Velociraptor Man

Pretty simple song, just these three riffs.



Riff 1: This is easier to play and sounds better fingerpicked. Use your thumb to play 
everything on the bottom string and your index finger to play everything else. If itís 
easier to use a plectrum for you then obviously do that though.

e ------------------------------------------------------------------|
B ------------------------------------------------------------------|
G ----------------4-------2-----------------------------------------|
D ---------4------------------------------4-----4----2--------------|
A ------------------------------------------------------------------|
E ------2-----2-------2----------------2-----2-----2----------------|

e ------------------------------------------------------------------|
B ------------------------------------------------------------------|
G ----------------4------2------------------------------2-----------|
D ---------4------------------------------4------4------------------|
A ------------------------------------------------------------------|
E ------2-----2------2-----------------2-----2-------2--------------|








Riff 2: This is the verse one. Itís important to remember that the first time you hit 
the F# (2nd fret of the E string) four times, but the second and third times you only do 
it three times. Also palm mute the ones with a star underneath.


e ------------------------------------------------------------------|
B ------------------------------------------------------------------|
G -----------4--2----------------------4--2-------------------------|
D -----4444--4--2--4--------------444--4--2--4----------------------|
A -----4444--2--0--4--------------444--2--0--4----------------------|
E -----2222--------2--------------222--------2----------------------|
       ****                       ***


e ------------------------------------------------------------------|
B ------------------------------------------------------------------|
G ----------4--2----------------------------------------------------|
D -----444--4--2--4--------------------2222--2222-------------------|
A -----444ó-2--0--4--------------------2222--2222-------------------|
E -----222--------2--------------------0000--0000-------------------|
       ***                             ****  ****









Riff 3: This is the chorus. Remember in the last bit of the verse that last power chord 
is played TWELVE times, NOT EIGHT. And also remember to palm mute the second F#, it just 
makes it sound cooler.

e -------------------------------------------------------------------|
B -------------------------------------------------------------------|
G ---------------------------2---------------------------------------|
D ----222222222222------4-4--2--4------------------------------------|
A ----222222222222------4-4--0--4------------------------------------|
E ----000000000000------2ó2-----2------------------------------------|
      ************        *             Velociraptor Man

e ------------------------------------------------------------------|
B ------------------------------------------------------------------|
G ---------2--------------------------------------------------------|
D ----4-4--2--4-----------------------------------------------------|
A ----4-4--0--4-----------------------------------------------------|
E ----2-2-----2-----------------------------------------------------|
        *               What a freaky freaky man

e ------------------------------------------------------------------|
B ------------------------------------------------------------------|
G ---------2--------------------------------------------------------|
D ----4-4--2--4-----------------------------------------------------|
A ----4-4--0--4-----------------------------------------------------|
E ----2-2-----2-----------------------------------------------------|
        *               With his tiny little hands


e -------------------------------------|
B -------------------------------------|
G -------------------------------------|
D ------4------2222-2222-2222-2222-----|
A ------4------2222-2222-2222-2222-----|
E ------2------0000-0000-0000-0000-----|
        Ve-----Loci    raaaaaptor man--|       (back to riff 1)
Tap to rate this tab
# A B C D E F G H I J K L M N O P Q R S T U V W X Y Z