Song name
# A B C D E F G H I J K L M N O P Q R S T U V W X Y Z

Misc Unsigned Bands - Making Monsters - Limits tab

MAKING MONSTERS - LIMITS - 2014
GUITAR TAB

Heres pretty much the exact way I played on the studio recording,
I didn't bother writing the notes for repeated strumming etc
as its easy enough to hear how many times you play which chord.

I used a PRS custom 22 through a Peavey 6505+, with the gain at about 4 on the distortion channel,
and the clean channel for the bridge chords, with a Boss DD7 digital delay for the tapped parts
in the first verse and the guitar solo and first half of the outro.

LEAD VERSE         
D|----------------------------------|
A|----------------------------------|
F|12--14--t21--12--14--t19--12--14--|
C|----------------------------------|
G|----------------------------------|
C|----------------------------------|  X 4


D|----------------------------------|
A|----------------------------------|
F|9--10--t17--9--10--t17--9--10-----|
C|----------------------------------|
G|----------------------------------|
C|----------------------------------|  X 4

RHYTHM CHORDS
D|----------------------------------|
A|----------------------------------|
F|----------------------------------|
C|-10-------5-------0---------------|
G|-7--------3-------0---------------| X 2
C|-7--------3-------0---------------|  

D|----------------------------------|
A|----------------------------------|
F|----------------------------------|
C|-10---12----5----0----5----7------|
G|-7----12----3----0----3----5------|
C|-7----10----3----0----3----5------| X 1 

CHORUS CHORDS
D|-3----5----12---15----12---15-----|
A|-5----7----13---13----13---13-----|
F|-3----5----14---14----14---14-----|
C|-3----5----0----0-----0----0------|
G|-3----5----0----0-----0----0------|
C|-3----5----0----0-----0----0------| X 2


2ND VERSE LEAD (palm muted)
D|----------------------------------|
A|----------------------------------|
F|----------------------------------|
C|--------14----------12------------|
G|-10--12------10--12-----10--12----|
C|----------------------------------| X 4

D|----------------------------------|
A|----------------------------------|
F|----------------------------------|
C|------10----------7---------------|
G|-7--8------7--10-----10--8--------|
C|----------------------------------| X 3


D|----------------------------------|
A|----------------------------------|
F|----------------------------------|
C|------10----------10--------------|
G|-7--8------7--8-------------------|
C|----------------------------------| X 1


PRE CHORUS
D|------------------------------------------------|
A|--------------------------natural harmonic-5----|
F|--------------------------natural harmonic-5----|
C|-2-2-2-2--2222--3-3-2-2---natural harmonic-5----|
G|-2-2-2-2--2222--2-2-2-2-------------------------|
C|-2-2-2-2--2222--2-2-2-2-------------------------| 


LEAD GUITAR INTO BRIDGE (LAST CHORUS)
D|------------------------------------------------|
A|------------------------------------------------|
F|------------------------------------------------|
C|---------14-p.o-12/10--12--10--12/14--12--10----|
G|-12--12---------------------------------------12|
C|------------------------------------------------|

D|----------------------15------------------------|
A|-13------13---13-----------13-------12/13-------|
F|-----14-----------14-----------14---------14----|
C|------------------------------------------------|
G|------------------------------------------------|
C|------------------------------------------------|

BRIDGE CHORDS (CLEAN)
D|--3----0----7-----5-------3----0----7----5------|
A|--5----3----10----7-------5----3----8----8------|
F|--5----5----9-----5-------5----5----9----7------|
C|--3----0----7-----5-------3----0----7----5------|
G|--3----0----7-----5-------3----0----7----5------|
C|--3----0----7-----5-------3----0----7----5------|

BRIDGE LEAD
D|---------------------------------------------------------------------------------|
A|--10--13--t17--10--13--t17--10--13- x 2 ---10--13--t15--10--13--t15--10--13-- x 2|
F|---------------------------------------------------------------------------------|
C|---------------------------------------------------------------------------------|
G|---------------------------------------------------------------------------------|
C|---------------------------------------------------------------------------------|

D|---------------------------------------------------------------------------------|
A|--5--7--t12--5--7--t12--5--7- x 2 ---5--7--t10--5--7--t10--5--7-- x 2------------|
F|---------------------------------------------------------------------------------|
C|---------------------------------------------------------------------------------|
G|---------------------------------------------------------------------------------|
C|---------------------------------------------------------------------------------|


GUITAR SOLO
Using Boss DD7 delay and Peavey 6505+ distortion

D|-----------------------------------------8-8-8-7-7-7---------------------|
A|--------8-8--------------------------------------------------------------|
F|--7--9------9--7--7-7--7-7-7  x 2  ------5-5-5-4-4-4---------------------|
C|-------------------------------------------------------------------------|
G|-----------------------------------------------------------------------12|
C|-------------------------------------------------------slide down from 12|


D|-------------------------------------------------------------------------|
A|---------------------12 h.o 13--t20--13 p.o 12---------------------------|
F|----------12 h.o 14-----------------------------14--t19--14 p.o 12-------|
C|------14-----------------------------------------------------------------|
G|--12---------------------------------------------------------------------|
C|-------------------------------------------------------------------------|

GUITAR SOLO
D|-----------------------12-12-12---------------------------------------15-----15--------15|
A|--------------13----------------13-13-13-12-12-12-13-13-13-13---12-13----12-13--12-13----|
F|--9/10-10-------10/9---------------------------------------------------------------------|
C|-----------------------------------------------------------------------------------------|
G|-----------------------------------------------------------------------------------------|
C|-----------------------------------------------------------------------------------------|

OUTRO

D|--------------------------------------------------------|
A|--------------------------------------------------------|
F|-9-9-9--10-10-10--14-14-14--10-10-10--9-9---10-10-------|
C|--------------------------------------------------------|
G|-7-7-7--8--8--8---12-12-12--8--8--8---7-7---8--8--------|
C|--------------------------------------------------------| X 2 


D|------------------------------------------------------------------------|
A|------------------------------------------------------------------------|
F|------------------------------------------------------------------------|
C|------------------------------------------------------------------------|
G|-2-2-2-3-3-3-7-7-7-3-3-3-2-2-3-3----------------------------------------|
C|-2-2-2-3-3-3-7-7-7-3-3-3-2-2-3-3- X 2 -2-2-2-3-3-3-7-7-7-3-3-3-2-2-3-3--|
Tap to rate this tab
# A B C D E F G H I J K L M N O P Q R S T U V W X Y Z