Song name
# A B C D E F G H I J K L M N O P Q R S T U V W X Y Z

Misc Unsigned Bands - The Terrordactyles - Sandcastles tab

www.terrordactyls.com/
Only the intro for now (though quite frankly, you could play it comfortably through the 
whole song), I'll upload the verse if I manage to tab that as well.
Corrections welcome.

CAPO 1

||-------------------------------------------------|
||-------------------------------------------------|
||-------------------------------------------------|
||---2--2--2-2---2--2--2-2---2--2--2-2---2--2--2-2-|
||-0-----3-----0-----3-----------3-----------3-----|
||-------------------------4-----------4-----------|

||-------------------------------------------------|
||-------------------------------------------------|
||-------------------------------------------------|
||---2--2--2-2---2--2--2-2---3--3--3-3---2--2--2-2-|
||-------3-----------3-----------2-----------3-----|
||-1-----------1-----------0-----------4-----------|

||-------------------------------------------------|
||-------------------------------------------------|
||-------------------------------------------------|
||---2--2--2-2---2--2--2-2---2--2--2-2---2--2--2-2-|
||-0-----3-----0-----3-----------3-----------3-----|
||-------------------------4-----------4-----------|

||-------------------------------------------------|
||-------------------------------------------------|
||-------------------------------0-----------------|
||---2--2--2-2---1--1--1-1---0--0--0-0---2--2--2-2-|
||-------3-----------2-----------------------2-----|
||-1-----------0-----------3-----------4-----------|

The funnest game we ever played
Is thinking of where we could run away
Together further and fur-
ther every day

A party bag filled to the top
Of different places we could stop
A pillow case on Halloween
Thats overfilling with daydreams

I'll take you to the north
And we'll go sleding every day
We'll be pulled by a pack of housecats
In our favourite wooden sley

You'll take me to the sea side
And we'll keep a flock of sheep
We'll swim all day then rule the land
In a sandcastle on the beach

Remember when we walked for hours
Back and forth on Princen Valley (Bow? ~Unsure)
Were you truly upset
Did you really mean it when you said

I'll never let you take me
Anywhere ever again
Was that a threat, exaggeration
Or were you just making conversation?

I promise there're a million other places
I could get us lost
A thousand unmarked doorways
A handful of awkward double-stops

I'll lose myself in you if you will
Lose yourself in me
Then we can wander around aimlessly
Looking for some place new to be

I wonder if one day we'll
Finally find the nerve to run away
What games will we invent?
What will it be like in the end?
Tap to rate this tab
# A B C D E F G H I J K L M N O P Q R S T U V W X Y Z