Song name
# A B C D E F G H I J K L M N O P Q R S T U V W X Y Z

Misc Unsigned Bands - Babylone - Zina tab

-------------------------------------------------------------------------------
			     ZINA - Babylone
-------------------------------------------------------------------------------

Tabbed by: Amynato
E-mail: amykim1299@gmail.com

Tuning: Standard

Verse and Chorus :

      G                 Cadd9           Em7            Dsus4

e|----------3---------------3---------------3---------------3----------------|
B|------3-----3---------3-----3---------3-----3---------3-----3--------------|
G|----0---0-----------0---0-----------0---0-----------2---2------------------|
D|--------------------------------------------------0------------------------|
A|--2---------------3---------------2----------------------------------------|
E|---------------------------------------------------------------------------|

Solo : 

e|---------------------------------------------------------------------------------|
B|---------------------------------------------------------------------------------|
G|-7s9-7--------7------7-9v-9h7-----------7-7-7s9-7-------7-----------7-9v-12-11-7-|
D|-------9-7h9---7-5-7----------9-7-9-7h9-----------9-7h9---7-5-7-7s9--------------|
A|---------------------------------------------------------------------------------|
E|---------------------------------------------------------------------------------|
Tap to rate this tab
# A B C D E F G H I J K L M N O P Q R S T U V W X Y Z