Song name
# A B C D E F G H I J K L M N O P Q R S T U V W X Y Z

Misc Unsigned Bands - The Morning Light - The Love tab

Hey. This is my tab for the morning light- the love. 
It's just the solo part of it because I often watch covers
on youtube and people play the chords over it instead of the solo,
so i thought this would help a lot of people. 
capo on 5 (the recorded version) standard EADGBE tuning.
all notes are NOT in respect to the capo, 
as in the first note will be played on the 9th fret not the 14th, 
the 2nd note on the 10th not the 15th, etc.
It sounds perfect to me when I play it. Thanks. -Jesse D (reymysteriofan)
You can contact me on AIM at reymysteriofan44 or reymysteriofan44@aim.com if you prefer
E-mail, but I probably won't get back to you through there because I don't check it often.

e---------------------------------------------------------------------|
B---------------------------------------------------------------------|
G-----------7--9----9-9-9---10--9--7----------------------------------|
D---9--10----------------------------10---5H7--6----------------------|
A---------------------------------------------------------------------|
E---------------------------------------------------------------------|

e------------------------8-------------12--10-------------------------|
B------------------8-----------10--8----------------------------------|
G---------------------9-----9-----------------------------------------|
D----6--7--9--10------------------------------------------------------|
A---------------------------------------------------------------------|
E---------------------------------------------------------------------|

e---15-15-15--12--10--12---10-10-10-12-10-8---------------------------|
B----------------------------------------------10--9---9-/------------|
G----------------------------------------------10--10--10/------------|
D---------------------------------------------------------------------|
A---------------------------------------------------------------------|
E---------------------------------------------------------------------|

e---------------------------------------------------------------------|
B----------5-------8--------------------------------------------------|
G----7--5------7------5----9--7---------------------------------------|
D---------------------------------------------------------------------|
A---------------------------------------------------------------------|
E---------------------------------------------------------------------|
Tap to rate this tab
 
# A B C D E F G H I J K L M N O P Q R S T U V W X Y Z