Song name
# A B C D E F G H I J K L M N O P Q R S T U V W X Y Z

Misc Unsigned Bands - Running - Philosophy tab

. [palm mute]
p [pull off]
h [hammer-on]
^ [bend]
~ [ring]


Riff:
-------------------------------------------------------------------------|--------------|
-------------------------------------------------------------------------|--------------|
-------------------------------------------------------------------------|-x6-----------|
---4----4---4----4---4----4---4----4---4----4---4----4---4----4---4----4-|--------------|
--2----2---2----2---2----2---2----2---2----2---2----2---2----2---1----1--|--------------|
-4----4---4----4---0----0---0----0---4----4---4----4---2----2---2----2---|--------------|

Intro/Verse: 
---------------------------------------------------------------------|------------------|
---------------------------------------------------------------------|------------------|
---------------------------------------------------------------------|--x5--------------|
-4444444444444444-4444444444444444-4444444444444444-4444444444444444-|------------------|
-2222222222222222-2222222222222222-2222222222222222-2222222211111111-|------------------|
-4444444444444444-0000000000000000-4444444444444444-2222222222222222-|------------------|
 .. .. . .. ..    .. .. . .. ..    .. .. . .. ..    .. .. . .. .. 
                                                        

Chorus:
----------------------------------------------------------------------|-----------------|
----------------------------------------------------------------------|-----------------|
-------------------4444444444444444-9999999999999999-4444444444444444-|-x2--------------|
--6666666666666666-4444444444444444-9999999999999999-4444444444444444-|-----------------|
--6666666666666666-2222222222222222-7777777777777777-2222222222222222-|-----------------|
--4444444444444444----------------------------------------------------|-----------------|

Verse
Chorus

Bridge:
---------------------------------------------------------------------|------------------|
---------------------------------------------------------------------|------------------|
------------------6666666666666666-4444444444444444------------------|-x4---------------|
-4444444444444444-6666666666666666-4444444444444444-4444444444444444-|------------------|
-4444444444444444-4444444444444444-2222222222222222-4444444444444444-|------------------|
-2222222222222222-----------------------------------2222222222222222-|------------------|

Chorus                                                                    End On
----------------------------------------------------------------------|-----------------|
----------------------------------------------------------------------|-----------------|
-------------------4444444444444444-9999999999999999-4444444444444444-|-x2--------------|
--6666666666666666-4444444444444444-9999999999999999-4444444444444444-|-------6~~~------|
--6666666666666666-2222222222222222-7777777777777777-2222222222222222-|-------6~~~------|
--4444444444444444----------------------------------------------------|-------4~~~------|
Tap to rate this tab
# A B C D E F G H I J K L M N O P Q R S T U V W X Y Z