Song name
# A B C D E F G H I J K L M N O P Q R S T U V W X Y Z

Misc Unsigned Bands - Sky Of Olympus - Sabadoo tab

C|-00000000-000--0--0-0-0-0-000-0-0-|
G|-00000000-000--0--0-0-0-0-000-0-0-|
C|----------------------------------|
F|----------------------------------|  x4
A|----------------------------------|
D|----------------------------------|

C|-000---00---00---00----00---00---00----00--------------|
G|-----5------------------------------10----8------------|
C|----------8----7----10---------------------------------|
F|--------------------------8----7-----------------------|
A|-------------------------------------------------------|
D|-------------------------------------------------------|


Tap to rate this tab
# A B C D E F G H I J K L M N O P Q R S T U V W X Y Z