Song name
# A B C D E F G H I J K L M N O P Q R S T U V W X Y Z

Misc Unsigned Bands - Matt Castiglione - 1 tab

                KATY PERRY
                   E.T.

                 --------
                 GUITAR I
                 --------
                 -VERSE-

|-----------------------------------------------|
|-----------------------------------------------|
|--1--1--1-1--1--1-0-1-0-1----1-0-1-0-1---------|
|--------------------------3------------3-------|
|-----------------------------------------------|
|-----------------------------------------------| X4

|-----------------------------------------------|
|-----------------------------------------------|
|--1--1--1-1--1--1-0-1-0-1-------1-0------------|
|--------------------------3---------3----------|
|-----------------------------------------------|
|-----------------------------------------------|

|------------------------------------------------|
|--1~--------------1~----------------1~----------|
|------3--1-0~---------3--1-0------------3--1-0~-|
|----------------3------------3~---3-------------|
|------------------------------------------------|
|------------------------------------------------|

|-----------------------------------------------|
|-----------------------2-1---------------------|
|-----------------------------------------------|
|--3--3-3-3--3-3-3--3-3-------------------------|
|-----------------------------------------------|
|-----------------------------------------------|

                    -CHORUS-

|-----------------------------------------------|
|-----------------------------------------------|
|--1--1--1-1-1--1--1-0-1-0-1----1-0-1-0-1-------|
|----------------------------3------------3-----|
|-----------------------------------------------|
|-----------------------------------------------| X2

|-----------------------------------------------|
|------------1-2-1~--------1--------------------|
|--------1-3-----------1-3---1------------------|
|-----3--------------3---------3~---------------|
|-----------------------------------------------|
|-----------------------------------------------| X2

                    -VERSE-

|-----------------------------------------------|
|-----------------------------------------------|
|--1--1--1-1--1--1-0-1-0-1----1-0-1-0-1---------|
|--------------------------3------------3-------|
|-----------------------------------------------|
|-----------------------------------------------|

|-----------------------------------------------|
|-----------------------------------------------|
|--1--1--1-1--1--1-0-1-0-1-------1-0------------|
|--------------------------3---------3----------|
|-----------------------------------------------|
|-----------------------------------------------|

|------------------------------------------------|
|--1~--------------1~----------------1~----------|
|------3--1-0~---------3--1-0------------3--1-0~-|
|----------------3------------3~---3-------------|
|------------------------------------------------|
|------------------------------------------------|

|-----------------------------------------------|
|-----------------------2-1---------------------|
|-----------------------------------------------|
|--3--3-3-3--3-3-3--3-3-------------------------|
|-----------------------------------------------|
|-----------------------------------------------|

                   -CHORUS-

|-----------------------------------------------|
|-----------------------------------------------|
|--1--1--1-1-1--1--1-0-1-0-1----1-0-1-0-1-------|
|----------------------------3------------3-----|
|-----------------------------------------------|
|-----------------------------------------------| X2

|-----------------------------------------------|
|------------1-2-1~--------1--------------------|
|--------1-3-----------1-3---1------------------|
|-----3--------------3---------3~---------------|
|-----------------------------------------------|
|-----------------------------------------------| X2

                   -BRIDGE-

|-----------------------------------------------|
|--2~~--2--1-----2~~-2--1-----1-----------------|
|------------3------------3------3-1---3~-------|
|------------------------------------3----------|
|-----------------------------------------------|
|-----------------------------------------------|

|-----------------------------------------------|
|--2-2-2--1-1-1-----2-2-2--1-1-1----------------|
|---------------3----------------3--------------|
|-----------------------------------------------|
|-----------------------------------------------|
|-----------------------------------------------|

|-----------------------------------------------|
|--1-1----------------------2~--1~--------------|
|------3-1----1-0~------------------------------|
|----------3--------3-1~------------------------|
|-----------------------------------------------|
|-----------------------------------------------|

                    -CHORUS-


|-----------------------------------------------|
|-----------------------------------------------|
|--1--1--1-1-1--1--1-0-1-0-1----1-0-1-0-1-------|
|----------------------------3------------3-----|
|-----------------------------------------------|
|-----------------------------------------------| X2

|-----------------------------------------------|
|------------1-2-1~--------1--------------------|
|--------1-3-----------1-3---1------------------|
|-----3--------------3---------3~---------------|
|-----------------------------------------------|
|-----------------------------------------------| X2

                     -OUTRO-

|-----------------------------------------------|
|------1~------------------1~-------------------|
|--1-3-----1-----------1-3-----1----------------|
|------------3-------------------3--------------|
|-----------------------------------------------|
|-----------------------------------------------|

|-----------------------------------------------|
|------------1-2-1~--------1--------------------|
|--------1-3-----------1-3---1------------------|
|-----3--------------3---------3~---------------|
|-----------------------------------------------|
|-----------------------------------------------|

|-----------------------------------------------|
|------------1-2-1~--------1--------------------|
|--------1-3-----------1-3---1------------------|
|-----3--------------3---------3-3--------------|
|-----------------------------------------------|
|-----------------------------------------------|

               --------------
               GUITAR II/BASS
               --------------

VERSE
CHORUS X4
VERSE
CHORUS X4
BRIDGE X1
CHORUS X4
OUTRO  X1

                         -VERSE-
                (Play all through VERSE)

|---------------------------------------------------------------|
|---------------------------------------------------------------|
|---------------------------------------------------------------|
|3x3x3x3x3x3x3x3x3x3x3x3x3x3x3x3x3x3x3x3x3x3x3x3x3x3x3x3x3x3x3x3
|3x3x3x3x3x3x3x3x3x3x3x3x3x3x3x3x3x3x3x3x3x3x3x3x3x3x3x3x3x3x3x3
|1x1x1x1x1x1x1x1x1x1x1x1x1x1x1x1x1x1x1x1x1x1x1x1x1x1x1x1x1x1x1x1

                        -CHORUS/OUTRO-

|---------------------------------------------------------------|
|---------------------------------------------------------------|
|6x6x6x6x6x6x6x6x8x8x8x8x8x8x8x8--------------------------------|
|6x6x6x6x6x6x6x6x8x8x8x8x8x8x8x8x3x3x3x3x3x3x3x3x3x3x3x3x3x3x3x3
|4x4x4x4x4x4x4x4x6x6x6x6x6x6x6x6x3x3x3x3x3x3x3x3x3x3x3x3x3x3x3x3
|--------------------------------1x1x1x1x1x1x1x1x1x1x1x1x1x1x1x1

                           -BRDIGE-

|---------------------------------------------------------------|
|---------------------------------------------------------------|
|--6--6--6--6--6--6--6--6--6--6--6--6--6--6--6--6---------------|
|--6--6--6--6--6--6--6--6--6--6--6--6--6--6--6--6---------------|
|--4--4--4--4--4--4--4--4--4--4--4--4--4--4--4--4---------------|
|---------------------------------------------------------------|

|---------------------------------------------------------------|
|--5--5--5--5--5--5--5--5--3--3--3--3--3--3--5--5---------------|
|--5--5--5--5--5--5--5--5--3--3--3--3--3--3--5--5---------------|
|--3--3--3--3--3--3--3--3--1--1--1--1--1--1--3--3---------------|
|---------------------------------------------------------------|

|---------------------------------------------------------------|
|---------------------------------------------------------------|
|--6--6--6--6--6--6--6--6--6--6--6--6--6--6--6--6---------------|
|--6--6--6--6--6--6--6--6--6--6--6--6--6--6--6--6---------------|
|--4--4--4--4--4--4--4--4--4--4--4--4--4--4--4--4---------------|
|---------------------------------------------------------------|


|---------------------------------------------------------------|
|--5--5--5--5--5--5--5--5--3--3--3--3--3--3--3--3---------------|
|--5--5--5--5--5--5--5--5--3--3--3--3--3--3--3--3---------------|
|--3--3--3--3--3--3--3--3--1--1--1--1--1--1--1--1---------------|
|---------------------------------------------------------------|

|---------------------------------------------------------------|
|---------------------------------------------------------------|
|--3--3--3--3--5--5--5--5---------------------------------------|
|--3--3--3--3--5--5--5--5---------------------------------------|
|--1--1--1--1--3--3--3--3---------------------------------------|
|---------------------------------------------------------------|

************************************
| ~   Sustained note
| x   Palm Mute
************************************
Tap to rate this tab
 
# A B C D E F G H I J K L M N O P Q R S T U V W X Y Z