Song name
# A B C D E F G H I J K L M N O P Q R S T U V W X Y Z

Misc Unsigned Bands - Suspension Of Disbelief - The Skunk tab

The Skunk
Guitar 1 Acoustic:EbAbDbGbBbEb (Melody)
Guitar 2 Electric:CGCFAD (Part Two, Chords)
Guitar 3 Acoustic:EADGBE (Chords)



Intro
Guitar 1:
|---------------------|----------------------------|
|---6---5---3-----3---|--2-----2-----/10-8-6-5-----|
|---------------------|----------------------------|
|---------------------|----------------------------|
|-5--5/3-3/1-1-1-1-1--|-0-0-0-0-0------------------|
|---------------------|----------------------------|
                   x4 

  (Dm)  (F)  (Dm) (F)      (Dm)  (F)  (Dm)  (F)
Guitar 2 (comes in after the 2nd repeat from guitar 1).
|---------------------|----------------------------|
|--3--5--6--5---------|--2-----2------/10-8-6-5----|
|--0--0--0--0----(x2)-|----------------------------|
|---------------------|----------------------------| 
|----(Strum)----------|-0-0-0-0-0------------------|
|---------------------|----------------------------|
                  x2

Chorus

|-------------------------------|----------------------------------|
|-666-6/10-10-10\-5-5\3-3-3-3---|-/5-5-5-5-5-5---------------------|
|-------------------------------|----------------------------------|
|-------------------------------|----------------------------------|
|-555-5/8---8--8\-3-3\1-1-1-1---|-/3-3-3-3-3-3------7--5--3--2-----|
|-------------------------------|-------------------5--3--1--0-----|
Tap to rate this tab
# A B C D E F G H I J K L M N O P Q R S T U V W X Y Z