Song name
# A B C D E F G H I J K L M N O P Q R S T U V W X Y Z

Misc Unsigned Bands - Super Happy Fun Club - My Lifes A Mess Yeah Yeah Yeah tab

-------------------------------------------------------------------------------
			     My Life's A Mess (Yeah Yeah Yeah) - Super Happy Fun Club
-------------------------------------------------------------------------------
Tabbed by: Craaig
E-mail: craaig@live.co.uk

Tuning: Standard

First tab, sorry if this is inaccurate, feel free to correct :)


Intro
E|--------------|
B|--------------|
G|--4--4--4--5--|  x4
D|--4--4--4--5--|
A|--2--2--2--3--|
E|--------------|


Part 2 of Verse 1
E|-----
B|-----
G|----- palm muted until 'Stop thinking'
D|--3--
A|--3--
E|--1--


Pre-Chorus
E|--------------------|
B|--------------------|
G|--5--3--8--5--3--4--|
D|--5--3--8--5--3--4--|
A|--3--1--6--3--1--2--|
E|--------------------|


Chorus
E|--------------------|
B|--------------------|
G|--5-----4--7--5-----|
D|--5--5--4--7--5--5--|
A|--3--5--2--5--3--5--|
E|-----3-----------3--|

Part 2 of verse 2 (after a long pickscrape)
E|--------|
B|--------|
G|--------|
D|--2--3--|
A|--2--3--| (the 2nd chord is repeated and palm muted)
E|--0--1--|


Repeat Chorus


E|--------|
B|--------|
G|--------|
D|--5--5--| (jam this chord for a while while the piano plays something crazy)
A|--5--5--|
E|--3--3--|

Repeat Chorus


'All we are'
E|--------------|
B|--------------|
G|--5--5--5--5--|
D|--5--5--5--5--|  Hold each of these until the next one
A|--3--3--3--3--|
E|--------------|


Faster 'All We Are' section
E|---------------------------------------------|
B|---------------------------------------------|
G|-----4--2--7-5-(repeat a few times)----4--2--|
D|--5--4--2--7-3----------------------5--4--2--|
A|--5--2--0--5-3----------------------5--2--0--|
E|--3---------------------------------3--------|


Ending
E|-----
B|----- Play the hell out of this chord for the ending.
G|--5--
D|--5--
A|--3--
E|-----
Tap to rate this tab
# A B C D E F G H I J K L M N O P Q R S T U V W X Y Z