Song name
# A B C D E F G H I J K L M N O P Q R S T U V W X Y Z

Misc Unsigned Bands - Martin Garrix - Animals tab

Martin Garrix made this really awesome song and I wanted to play it, but it wasn't on UG yet.
So, here it is, my first ever tab on the WWW: Martin Garrix - Animals!

this is the main part:
e|--------------------------------------|
B|---------1-4--------------------------|
G|-1-1--3------3-3-1-0-----0-0-1-0------|
D|---------------------3-----------3----|
A|--------------------------------------|
E|--------------------------------------|

reapeat this a few this times.

And then the stunning break(it's easy, but fast):

                          the turn around:
e|-----------------------|-----------------------|
B|-1-1-1-1---------------|-1-1-1-1---------2-1---|
G|---------3-3-3-1-1-----|---------3-3-3-1-------|
D|-------------------3-3-|-----------------------|
A|-----------------------|-----------------------|
E|-----------------------|-----------------------|

Tap to rate this tab
# A B C D E F G H I J K L M N O P Q R S T U V W X Y Z