Song name
# A B C D E F G H I J K L M N O P Q R S T U V W X Y Z

Misc Unsigned Bands - The Traditional Fools - Davey Crockett tab

(/) Slide Up

E|-----------------------------------------------------------------------------------|
B|-----------------------------------------------------------------------------------|
G|-----------------------------------------------------------------------------------|
D|--0--4-----0--4--5--4--0--0--4--0--2/21--------------------------------------------|
A|--------0--------------------------------0-----------------------------------------|
E|-----------------------------------------------------------------------------------|

E|-----------------------------------------------|
B|-----------------------------------------------|
G|-----------------------------------------------|
D|--0--4-----0--4--5--4--0--0--4--2--0--2/21-----|
A|--------0-----------------------------------0--|
E|-----------------------------------------------|

E|-------------------------------------------------------------------|
B|-------------------------------------------------------------------|
G|-------------------------------------------------------------------|
D|--4/7--7--7--7--5--4--5--4--2--4--2--0--------2--4--2--0--2/21-----|
A|----------------------------------------4--5--------------------0--|
E|-------------------------------------------------------------------|

E|-------------------------------------------------------------------|
B|-------------------------------------------------------------------|
G|-------------------------------------------------------------------|
D|--4/7--7--7--7--5--4--5--4--2--4--2--0--------2--4--2--0--2/21-----|
A|----------------------------------------4--5--------------------0--|
E|-------------------------------------------------------------------|

E|--4/5--5--5--7--5--4--5--2--2--2--4/5--5--5--7--5--4--5-----|
B|--6/7--7--7--8--7--6--7--3--3--3--6/7--7--7--8--7--6--7-----|
G|------------------------------------------------------------|
D|------------------------------------------------------------|
A|------------------------------------------------------------|
E|------------------------------------------------------------|

E|--4/5--5--5--7--5--4--5--2--2--2--1--1--2--|
B|--6/7--7--7--8--7--6--7--3--3--3--2--2--3--|
G|-------------------------------------------|
D|-------------------------------------------|
A|-------------------------------------------|
E|-------------------------------------------|

E|-----------------------------------------------------------------------------------|
B|-----------------------------------------------------------------------------------|
G|-----------------------------------------------------------------------------------|
D|--0--4-----0--4--5--4--0--0--4--0--2/21--------------------------------------------|
A|--------0--------------------------------0-----------------------------------------|
E|-----------------------------------------------------------------------------------|

E|-----------------------------------------------|
B|-----------------------------------------------|
G|--5--5--5--8--8--8--10--10--10--8--8--8--8/10--|
D|--6--6--6--9--9--9--11--11--11--9--9--9--9/11--|
A|--6--6--6--9--9--9--11--11--11--9--9--9--9/11--|
E|--4--4--4--7--7--7--9---9---9---7--7--7--7/9---|
Tap to rate this tab
# A B C D E F G H I J K L M N O P Q R S T U V W X Y Z