Song name
# A B C D E F G H I J K L M N O P Q R S T U V W X Y Z

Misc Unsigned Bands - Gum - Growin Up chords

Highlighted       Show chord diagrams
Hello,
This is my attempt at tabbing "Growin' Up" by GUM - which is Jay Watson's (Tame Impala, Pond)
solo project. I used my ears only for this one no guarantee it's on spot. Enjoy!

INTRO & VERSE(S) :
E, G#m, D, A, C, A, Am x 2

CHORUS (?) :
E, E, D, A x3
C, C, A, A

PRE-SOLO :
E----------------------------------------------------------------------|
B----------------------------------------------------------------------|
G---------------------------------7-7-7/9------------------------------|
D----7/9-10-10-9-5\-----------7/7-7-7-7/9-7\---------------------------|
A----7/9-10-10-9-5\-----------7/9-5-5-5/7-7\---------------------------|
E----5/7-8--8--7-3\-----------5/9---------5\---------------------------|

E----------------------------------------------------------------------|
B----------------------------------------------------------------------|
G---------------------7-7-7/9------------------------------------------|
D----7/9-10-10-9-5-7--7-7-7/9-7\---------------------------------------|
A----7/9-10-10-9-5-7--5-5-5/7-7\---------------------------------------|
E----5/7-8--8--7-3-5----------5\---------------------------------------|

This is also the rhythm guitar part for the solo itself, so it repeats until the end of 
the solo.
Tap to rate this tab
 
# A B C D E F G H I J K L M N O P Q R S T U V W X Y Z