Song name
# A B C D E F G H I J K L M N O P Q R S T U V W X Y Z

Misc Unsigned Bands - Port Noir - Left tab

Left

Artist: PORT NOIR
Album:  Puls
Year:   2013

http://www.portnoir.com/
https://www.facebook.com/portnoirofficial
https://www.youtube.com/user/portnoirofficial


Transcribed by mordred91 on 14/04/10


Duration Legend
---------------
W - whole
H - half
Q - quarter
E - 8th

Tablature Legend
----------------
L - tied note
g - grace note
(n) - ghost note


Notes: The ghost note in the Chorus is sometimes left out.
After the first Chorus repeat everything from Verse to the end of the first half of the 
chorus (first 4 bars), then play the "2nd Chorus Ending" (same as the intro)


TUNING: ONE WHOLE STEP DOWN

Intro


     E    E  E  E  H           W                   E  E  E  E  H           W
D||-------------0--L--------|--L----------------|-----------0--L--------|--L----------------|
A||-------------------------|-------------------|-----------------------|-------------------|
F||----------2--------------|-------------------|--------2--------------|-------------------|
C||-----2g3-----------------|-------------------|-----3-----------------|-------------------|
G||--0----------------------|-------------------|--0--------------------|-------------------|
D||-------------------------|-------------------|-----------------------|-------------------|


  E  E  E  E  H           W                   E  E  E  E  H           W
-----------0--L--------|--L----------------|-----------0--L--------|--L----------------|
-----------------------|-------------------|-----------------------|-------------------|
--------2--------------|-------------------|--------2--------------|-------------------|
-----3-----------------|-------------------|-----3-----------------|-------------------|
--0--------------------|-------------------|--0--------------------|-------------------|
-----------------------|-------------------|-----------------------|-------------------|


Verse


  W                   W                   W                   W
-------------------|-------------------|-------------------|-------------------|
--1----------------|--0----------------|--1----------------|--0----------------|
--0----------------|--0----------------|--0----------------|--0----------------|
-------------------|-------------------|-------------------|-------------------|
--3----------------|--2----------------|--3----------------|--0----------------|
-------------------|-------------------|-------------------|-------------------|


  Q    E  E  H           W                   W                   W
----------0--L--------|--L----------------|-------------------|-------------------|
----------------------|-------------------|--0----------------|--1----------------|
-------2--------------|-------------------|--0----------------|--0----------------|
----------------------|-------------------|-------------------|-------------------|
----------------------|-------------------|--2----------------|--3----------------|
--1-------------------|-------------------|-------------------|-------------------|


  W                   W                   W                   W
-------------------|-------------------|-------------------|-------------------|
--1----------------|--0----------------|--1----------------|--0----------------|
--0----------------|--0----------------|--0----------------|--0----------------|
-------------------|-------------------|-------------------|-------------------|
--3----------------|--2----------------|--3----------------|--0----------------|
-------------------|-------------------|-------------------|-------------------|


  Q    E  E  H           W                   Q    E  E  H           Q    E  E  H
----------0--L--------|--L----------------|----------0--L--------|----------0--L--------|
----------------------|-------------------|----------------------|----------------------|
-------2--------------|-------------------|-------2--------------|-------2--------------|
----------------------|-------------------|----------------------|----------------------|
----------------------|-------------------|----------------------|----------------------|
--1-------------------|-------------------|--1-------------------|--1-------------------|


  Q    E  Q    E  Q       Q    E  Q    E  Q       Q    E  Q    Q    E       W
----------0------------|----------0------------|----------0------------|---------------------|
---------------0--L----|---------------0--L----|---------------0----1--|---------------------|
-------2---------------|-------2---------------|-------0---------------|--0g2----------------|
-----------------------|-----------------------|-----------------------|---------------------|
-----------------------|-----------------------|--0--------------------|---------------------|
--3--------------------|--3--------------------|-----------------------|---------------------|


Chorus


      E  E  E  E  E  E  E   E      E  E  E  E  E  E  E   E      E  E  E  E  E  E  E   E
|--------------5--0-------------|-----------5--0-------------|-----------5--0-------------|
|-----------3--------3----------|--------3--------3----------|--------3--------3----------|
|*-------2--------------2-------|-----2--------------2-------|-----2--------------2-------|
|*--2g3--------------------(3)--|--3--------------------(3)--|--3--------------------(3)--|
|-------------------------------|----------------------------|----------------------------|
|-------------------------------|----------------------------|----------------------------|


  E  E  E  E  E  E  E   E      E  E  E  E  E  E  E  E     E  E  E  E  E  E  E  E
-----------5--0-------------|--------------3-----------|--------------3-----------|
--------3--------3----------|-----------1-----1--------|-----------1-----1--------|
-----2--------------2-------|--------4-----------4-----|--------4-----------4-----|
--3--------------------(3)--|-----2-----------------2--|-----2-----------------2--|
----------------------------|--0-----------------------|--0-----------------------|
----------------------------|--------------------------|--------------------------|


  E  E  E  E  E  E  E  E     E  E  E  E  E  E  E  E       E  E  E  E  H
--------------3-----------|--------------3------------||-----------0--L--------|
-----------1-----1--------|-----------1-----1---------||-----------------------|
--------4-----------4-----|--------4-----------4-----*||--------2--------------|
-----2-----------------2--|-----2-----------------2--*||-----3-----------------|
--0-----------------------|--0------------------------||--0--------------------|
--------------------------|---------------------------||-----------------------|


  E  E  E  E  H           E  E  E  E  H           E  E  E  E  H           W
-----------0--L--------|-----------0--L--------|-----------0--L--------|-------------------||
-----------------------|-----------------------|-----------------------|-------------------||
--------2--------------|--------2--------------|--------2--------------|-------------------||
-----3-----------------|-----3-----------------|-----3-----------------|-------------------||
--0--------------------|--0--------------------|--0--------------------|--0----------------||
-----------------------|-----------------------|-----------------------|-------------------||


2nd Chorus Ending


     E    E  E  E  H           W                   E  E  E  E  H           W
D||-------------0--L--------|--L----------------|-----------0--L--------|--L----------------||
A||-------------------------|-------------------|-----------------------|-------------------||
F||----------2--------------|-------------------|--------2--------------|-------------------||
C||-----2g3-----------------|-------------------|-----3-----------------|-------------------||
G||--0----------------------|-------------------|--0--------------------|-------------------||
D||-------------------------|-------------------|-----------------------|-------------------||


Have fun and BUY THE ALBUM!!!
Tap to rate this tab
 
# A B C D E F G H I J K L M N O P Q R S T U V W X Y Z