Song name
# A B C D E F G H I J K L M N O P Q R S T U V W X Y Z

Misc Unsigned Bands - Nintendo - Wing Cap tab

Wing Cap - Tab

Tuning: Standard

Note I: These are all the parts of the song (more of a tune
than a song) that you can play on guitar.  This is the Wing
Cap theme from Nintendo's Super Mario 64 DS.

[Guitar I]
[Intro (Plays throughout song)]
E|-12-12-12-12-12-12-12-12-10-10-10-10-10-10-10-10------------|
B|------------------------------------------------------------|
G|------------------------------------------------------------|
D|------------------------------------------------------------|
A|------------------------------------------------------------|
E|------------------------------------------------------------|

[Guitar II]
[Begins with intro, play once]
[Use tremolo effect]
E|-12~----10~----12~----10~-----------------------------------|
B|------------------------------------------------------------|
G|------------------------------------------------------------|
D|------------------------------------------------------------|
A|------------------------------------------------------------|
E|------------------------------------------------------------|

[Guitar III]
[Starts at 0:04, then plays throughout song]
E|------------------------------------------------------------|
B|------------------------------------------------------------|
G|------------------------------------------------------------|
D|------------------------------------------------------------|
A|---5-7---7-5-3-5-3-5----------------------------------------|
E|-5-----5----------------------------------------------------|

[Guitar II]
[Starts at 0:14-0:24]
E|------------------------------------------------------------|
B|------------------------------------------------------------|
G|----------------------------------10-9----------------------|
D|---7-10---7-9---7-10---7-9---7-10------10-------------------|
A|------------------------------------------10----------------|
E|-5------5-----5------5-----5--------------------------------|

[Guitar IV]
[Starts at 0:06, then plays throughout song]
E|--------12---------12----------------17----------17---------|
B|-8-9-10----12-8-10----12-12-13-14-15----17----15----17------|
G|-------------------------------------------17---------------|
D|------------------------------------------------------------|
A|------------------------------------------------------------|
E|------------------------------------------------------------|

E|-17-19-15-17------------------------------------------------|
B|-------------18-17-15-13-12---------------------------------|
G|------------------------------------------------------------|
D|------------------------------------------------------------|
A|------------------------------------------------------------|
E|------------------------------------------------------------|

[Guitar II]
[Starts at 0:32-0:42]
E|------------------------------------------------------------|
B|------------------------------------------------------------|
G|----------------------------------10-9----------------------|
D|---7-10---7-9---7-10---7-9---7-10------10-------------------|
A|------------------------------------------10----------------|
E|-5------5-----5------5-----5--------------------------------|

Note II: This whole tab then continues on; there isn't really 
an end to the tune as you will know if you play or have 
played any Mario video games.  Most of the tunes in the games 
usually don't have an end.

If there's any confusion, questions, or advice on how to 
improve it, please post a comment. Have fun playing, and 
please rate! -Rarrlow
Tap to rate this tab
# A B C D E F G H I J K L M N O P Q R S T U V W X Y Z