Song name
# A B C D E F G H I J K L M N O P Q R S T U V W X Y Z

Misc Unsigned Bands - The Hollow - Song 1 chords

The Hollow Tab


INTRO:
-------------------------------------------|
-------------------------------------------|
-------------------------------------------|
-7---3---0---------------------------------|
-7---3---0---------------------------------|
-7---3---0---------------------------------|

Repeat

VERSE:

--------------------------------------------------------------------------------------|
--------------------------------------------------------------------------------------|
--------------------------------------------------------------------------------------|
--3------------------------8----------------------------------------------------------|
-----5-------------------------5-------5---8---7----8--0-5h8-0-4h7--------------------|
--------0000-8-5-7-4-0000----8----8--0---0---0---00-----------------------------------|

--------------------------------------------------------------------------------------|
--------------------------------------------------------------------------------------|
-------------------------------------------------------------7h9p7--6h7p6-------------|
--3------------------------8------------8---------------5h7---------------------------|
-----5-------------------------5------------5-------5h8-------------------------------|
--------0000-8-5-7-4-0000----8----8-888---8---8-888-----------------------------------|

PRE-CHORUS:

--------------------------------------------------------------------------------------|
--------------------------------------------------------------------------------------|
--------------------------------------------------------------------------------------|
--------------------------------------------------------------------------------------|
----------------------------------------------------------33333333333333333333333-----|
---5555555555555555555558888888888888888833333333333333333----------------------------|

CHORUS:

--------------------------------------------------------------------------------------|
--------------------------------------------------------------------------------------|
--------------------------------------------------------------------------------------|
--0--8--3--5---0--8--3-7--------------------------------------------------------------|
--0--8--3--5---0--8--3-7--------------------------------------------------------------|
--0--8--3--5---0--8--3-7--------------------------------------------------------------|

REPEAT VERSE

PRE-CHORUS #2

--------------------------------------------------------------------------------------|
--------------------------------------------------------------------------------------|
--------------------------------------------------------------------------------------|
--0-0-0---0-0---0---0-0---0-0-0---7-7-7---7-7-7---8--8-8--7-7--7----------------------|
--0-0-0---0-0---0---0-0---0-0-0---8-8-8---8-8-8---5--5-5--5-5--8----------------------|
--0-0-0---0-0---0---0-0---0-0-0---8-8-8---8-8-8---5--5-5--5-5--5----------------------|

--------------------------------------------------------------------------------------|
--------------------------------------------------------------------------------------|
--------------------------------------------------------------------------------------|
--0-0---0-0---0-0---0-0---0-0-0---8------10-----7-------------------------------------|
--0-0---0-0---0-0---0-0---0-0-0---8------10-----7-------------------------------------|
--0-0---0-0---0-0---0-0---0-0-0---8(X10)-10(X4)-7(X4)---------------------------------|

REPEAT CHORUS
Tap to rate this tab
# A B C D E F G H I J K L M N O P Q R S T U V W X Y Z