Song name
# A B C D E F G H I J K L M N O P Q R S T U V W X Y Z

Misc Unsigned Bands - Ultimate Truth - Youre My Guardian Angel tab

-----------------------------------------------------------------------------
	         YOURE MY GUARDIAN ANGEL - ULTIMATE TRUTH
-----------------------------------------------------------------------------
Tabbed by: Ultimate Truth
E-mail: ultimatetruthcontact@gmail.com

Tuning: EADGBE

Verse
x4
e|--------------------------|
B|--2-2-0-2-2--3-3-3-3-3-3--|
G|--2-2-0-2-2--2-2-2-2-2-0--|
D|--2-2-0-2-2--0-0-0-0-0-0--|
A|--------------------------|
E|--------------------------|

Chorus
e|-------------------------------------------|
B|--3-3-3-3-3-3--3-3-3-3-3-3--3-3-3-3-3-3-2--|
G|--2-2-2-2-2-0--2-3-2-2-2-0--2-2-2-2-2-0-2--|
D|--0-0-0-0-0-0--0-0-0-0-0-0--0-0-0-0-0-0-2--|
A|-------------------------------------------|
E|-------------------------------------------|

Bridge
x8
e|--------------------------|
B|--5-5-5-5-5---------------|
G|--5-5-5-5-5---------------|
D|--5-5-5-5-5--5-5-5-5-5-7--|
A|-------------5-5-5-5-5-7--|
E|--------------------------|

************************************
Tap to rate this tab
# A B C D E F G H I J K L M N O P Q R S T U V W X Y Z