Song name
# A B C D E F G H I J K L M N O P Q R S T U V W X Y Z

Misc Unsigned Bands - Before My Body Is Dry - Dont Lose Your Way tab

Not particularly sure if this accurate since this is my first tab ^__^ But hopefully it helps :DD



Standard Tuning 

Intro:

e|--------------------|
B|--7-----------------|
G|-----------7-----9--|
D|-----9--7-----7-----|  (x8)
A|--------------------|
E|--0-----------------|

Verse:

e|-------------------------|----------------------|--------------------|
B|--5--5--7----------------|----------------------|--------0--------3--|
G|---------7--4---4--7--4--|---0--2--4--7~--4--2--|--0--2-----2--0-----|
D|-------------7-----------|----------------------|--------------------|
A|-------------------------|----------------------|--------------------|
E|-------------------------|----------------------|--------------------|

e|--------------|--------------------|-----------5--|--------------|--------------|----------5--7-----|
B|-----5--8--7--|--------------------|--------------|--8--7--------|--5--5--5-----|--5--5--8-------5~-|
G|--4-----------|--7--4--------------|--7-----------|--------7--7--|-----------7--|-------------------|
D|--------------|-----------7--5--7--|-----5--------|--------------|--------------|-------------------|
A|--------------|--------------------|--------------|--------------|--------------|-------------------|
E|--------------|--------------------|--------5-----|--------------|--------------|-------------------|

Pre-Chorus:

e|-------------------|-------------|---------------------5-----|-------------------|-------------5--5--|
B|-----8----7--5--5--|--5----5--5--|------8--7--5--------------|-----8----7--5--5--|-----------5-------|
G|--7----------------|----7--------|--5------------7--7-----7--|--7----------------|--7--4--7----------|
D|-------------------|-------------|---------------------------|-------------------|-------------------|
A|-------------------|-------------|---------------------------|-------------------|-------------------|
E|-------------------|-------------|---------------------------|-------------------|-------------------|

Chorus:

  DON'T LOSE YOUR WAAAY!!
e|-------7----10----10--|-----12--10--|--10--8--7--5--|-----5--7--|
B|---8------------------|--8----------|---------------|--8--------|
G|----------------------|-------------|---------------|-----------|
D|----------------------|-------------|---------------|-----------|
A|----------------------|-------------|---------------|-----------|
E|----------------------|-------------|---------------|-----------|

  DON'T BE AFRAAAIIDDD~!
e|-------7----10----10--|-----12--10--|---------7--8--|--7--5------7--|
B|---8------------------|--8----------|--8--10--------|---------5-----|
G|----------------------|-------------|---------------|---------------|
D|----------------------|-------------|---------------|---------------|
A|----------------------|-------------|---------------|---------------|
E|----------------------|-------------|---------------|---------------|

e|---------7--7~--8--7--|--------------7-----|---------7--7--|--8--7-------------10--7~-|
B|--8--10---------------|--10--8--10------5--|--8--10--------|--------10--8--10---------|
G|----------------------|--------------------|---------------|--------------------------|
D|----------------------|--------------------|---------------|--------------------------|
A|----------------------|--------------------|---------------|--------------------------|
E|----------------------|--------------------|---------------|--------------------------|

Bridge:

  I've got to find out who...~        I  hear the voice of you...~
e|-----10---------------------------|-----10--------------------------|
B|--8------10--10--8-----8--10--10--|--8------10--10--8-----8--10-----|
G|--------------------9-------------|--------------------9---------9--|
D|----------------------------------|---------------------------------|
A|----------------------------------|---------------------------------|
E|----------------------------------|---------------------------------|

  I've got to find out who...~       I hear the voice of you in my mind so~
e|-----10---------------------------|-----10-----------------------------|
B|--8------10--10--8-----8--10--10--|--8------10--10--8-----8--10--------|
G|--------------------9-------------|--------------------9---------7--9--|
D|----------------------------------|------------------------------------|
A|----------------------------------|------------------------------------|
E|----------------------------------|------------------------------------|

(I don't know what this bit is called but here have it anyways)

  Can't move my feet in the dark...~
e|--------------|-----------|-----------------------|
B|--------------|-----------|-----------------------|
G|--0--4--7--7--|--0--9--7--|--7--5--4--2--0--2--4--|
D|--------------|-----------|-----------------------|
A|--------------|-----------|-----------------------|
E|--------------|-----------|-----------------------|


e|--------------|-----------|--------------------------|
B|--------------|-----------|--------------------------|
G|--0--4--7--7--|--0--9--7--|--0--2--4--5--4--2--0--4--|
D|--------------|-----------|--------------------------|
A|--------------|-----------|--------------------------|
E|--------------|-----------|--------------------------|

(repeat chorus)

(end)

Hope this tab was accurate enough for you guys! :DD Please feel free to correct any mistakes ^__^
Tap to rate this tab
# A B C D E F G H I J K L M N O P Q R S T U V W X Y Z