Song name
# A B C D E F G H I J K L M N O P Q R S T U V W X Y Z

Misc Unsigned Bands - Follow My Lead - Crestfallen tab

Artist: Follow My Lead
Song: Crestfallen
Album: Sleepless (EP)
Year: 2013
Genre: Metalcore/Post-Hardcore
Tabbed by: Sunde

The song is in Drop C. This is the rhytm part since I couldn't find out the tapping part
in the chorus and also I'm not sure about the bridge, but I guess this is what the rhytm
guitar plays.


1st Verse (0:24 - 0:46)

(Repeat all x2)


D --------------------------------------------------------------------------------|
A --------------------------------------------------------------------------------|
F --------------------------------------------------------------------------------|
C --------------------------------------------------------------------------------|
G -------00000--00-00--0000----12-------------------------------------------------|
C -3b----00000--00-00--0000-------15-14-11-12----000--000--000--888--555--777--3b-|
         ****   *  *   ***                       ***  ***  ***


D ------------------------------------------------------------------------------|
A ------------------------------------------------------------------------------|
F ------------------------------------------------------------------------------|
C ------------------------------------------------------------------------------|
G -------00000--00-00--0000----12-------------------------------------------7-8-|
C -3b----00000--00-00--0000------15-14-11-12----111--111--111--888--555-7-8-----|
         ****   *  *   ***


Bridge (0:46 - 1:07)

D --------------------------------------------------------------------------------|
A --------------------------------------------------------------------------------|
F --------------------------------------------------------------------------------|  x2
C -0----0----0----8--88--8------77--0----0----0-----------------------------------|
G -0-00-0-00-0-00-8--88--8-5555-77--0-00-0-00-0-00-888-888-888-888-555-555-555----|
C -0-00-0-00-0-00-8--88--8-5555-77--0-00-0-00-0-00-888-888-888-888-555-555-555-3b-|
     **   **   **          ****       **   **   ** *** *** *** *** *** *** ***


Pre-Breakdown (1:07 - 1:10)


D ------------------|
A ------------------|
F ------------------|  x1
C ------------------|
G -00--00-000-------|
C -00--00-000--12s0-|
   **  ** ***

1st Breakdown (1:10-1:34)

(Play twice then play the powerchord on the first fret)

D ---------------------------------------------      --------|
A ---------------------------------------------      --------|
F ---------------------------------------------  x2  --------|  x1
C ---------------------------------------------      -1------|
G ---------------------------------------------      -1------|
C -0000--00-00--0000--000-000-0000--00-00-0000-      -1------|
   ***   *  *   ***   *** *** ***   *  *  ***         L

(Then again one more time)

D ---------------------------------------------|
A ---------------------------------------------|
F ---------------------------------------------|  x1
C ---------------------------------------------|
G ---------------------------------------------|
C -0000--00-00--0000--000-000-0000--00-00-0000-|
   ***   *  *   ***   *** *** ***   *  *  ***


Chorus (1:34 - 1:55)

D ------------------------------------|
A ------------------------------------|
F ------------------------------------|  x2
C -0----5----8------------------------|
G -0----5----8----333-333-333-2222----|
C -0----5----8----333-333-333-2222-3b-|
  x8   x8   x8    *** *** *** ****

Pre-Verse (1:54-1:56)

D ----------------------|
A ----------------------|
F ----------------------|  x1
C ----------------------|
G -00--00-000--13-------|
C -00--00-000-----12-11-|
   **  ** ***

2nd Verse (1:56-2:20)

D -----------------------------------------------|
A -----------------------------------------------|
F -----------------------------------------------|  x4
C -----------------------------------------------|
G -00--00-000--13--------------------------------|
C -00--00-000-----12-11--00--000--888-555-777-3b-|
   **  ** ***            **  ***

Repeat Bridge x2
Repeat Chorus x2

Pre-Breakdown (3:11-3:27)

(Play the first part then play a little variation)

D --------------------      ------------------------------|
A --------------------      ------------------------------|
F --------------------  x4  ------------------------------|
C --------------------      ------------------------------|
G --------------------      -0---00-00-00--000--0---00-00-|
C -000-00--00-00--000-      -0---00-00-00--000--0---00-00-|
   *** **  ** **  ***        *   ** ** **  ***  *   ** **

2nd Breakdown (3:27-3:50)

D ------------------------------------------------|
A ------------------------------------------------|
F ------------------------------------------------| x4
C ------------------------------------------------|
G -00-00-00-00---00000000--00-00-00-00---00000000-|
C -00-00-00-00---00000000--00-00-00-00---00000000-|
   ** ** ** **   ********  ** ** ** **   ********


Repeat Chorus x4

* = Palm Mute
b = Bending
s = Slide


Follow My Lead on Facebook: https://www.facebook.com/FollowMyLeadFML?fref=ts
Follow My Lead on Twitter: https://twitter.com/_FML_Official_
Follow My Lead on YT: https://www.youtube.com/channel/UCo01RFn8qpaypJfqOc5CJHQ
Tap to rate this tab
# A B C D E F G H I J K L M N O P Q R S T U V W X Y Z