Song name
# A B C D E F G H I J K L M N O P Q R S T U V W X Y Z

Misc Unsigned Bands - Searching For Serenity - Untitled Project 6 tab

Untitled Project #6 by Searching For Serenity

INTRO:

A|--------------------------------------------------------------|
A|--------------------------------------------------------------|
F|--------------------------------------------------------------|
C|--------------------------------------------------------------|x4
G|------------5-------------------------------5---8-------------|
C|-0-00-00-00---8-5-0000-00000000--0-00-00-00---8---0000-8----5-|
     .  .  ..       ...  ........    .  .  ..       ...

VERSE:

D|---------------------------------------------------------------|
A|---------------------------------------------------------------|
F|---------------------------------------------------------------|
C|---------------------------------------------------------------|x4
G|-000-0-00-0-0000-000-0-00-----8--000-0-00-0-0000---------------|
C|-000-0-00-0-0000-000-0-00-8-5----000-0-00-0-0000-1b-0-0-1b-0-0-|
   ... . .. . .... ... . ..        ... . .. . ....

D|---------------------------------------------------------------------|
A|---------------------------------------------------------------------|
F|---------------------------------------------------------------------|
C|---------------------------------------------------------------------|x2
G|--------------------------------------------88887777-----------------|
C|-8888888885555555-0-00-00-33333333--88888888--------5555555577777777-|
                      .  .

BREAKDOWN:

D|---------------------------------------------------------|
A|---------------------------------------------------------|
F|---------------------------------------------------------|
C|---------------------------------------------------------|x2
G|-0-0-0-00-0-00-\12-0-00000000-0-0-0-00-0-00-\12-0-0h10h1-|
C|-0-0-0-00-0-00-\12-0-00000000-0-0-0-00-0-00-\12-0-0h10h1-|

D|---------------------------------------------------------|
A|---------------------------------------------------------|
F|---------------------------------------------------------|
C|---------------------------------------------------------|
G|-0-0-0-00-0-00-\12-0-00000000-0-0-0-00-0-00-\12-0-0h10h1-|
C|-1-1-1-11-1-11-\12-1-11111111-1-1-1-11-1-11-\12-1-0h10h1-|

D|---------------------------------------------------------|
A|---------------------------------------------------------|
F|---------------------------------------------------------|
C|---------------------------------------------------------|
G|-0-0-0-00-0-00-\12-0-00000000-0-0-0-00-0-00-\12-0-0h10h1-|
C|-0-0-0-00-0-00-\12-0-00000000-0-0-0-00-0-00-\12-0-0h10h1-|

CHORUS:

Rhythm/Bass:

D|------------------------------------------------------------------------------------------|
A|------------------------------------------------------------------------------------------|
F|------------------------------------------------------------------------------------------|
C|------------------------------------------------------------------------------------------|x4
G|-0-0-0-0-00-0--00-0-00000000-101010-101010--0-0-0-0-00-0--00-0-00000000-33333333-55555555-|
C|-0-0-0-0-00-0--00-0-00000000-888888-777777--0-0-0-0-00-0--00-0-00000000-33333333-55555555-|
           ..    ..   ........                        ..    ..   ........


Rhythm 2:

D|---------------------------------------------------------------------------| 
A|---------------------------------------------------------------------------|
F|---------------------------------------------------------------------------|
C|-7777777777777777-101010-9-555-77777-7777777777777777-101010-9-12-12121212-|x4
G|---------------------------------------------------------------------------|
C|-5555555555555555-88888--7-333-55555-5555555555555555-88888--7-10-10101010-|

Lead:

D|-171717171717171717171717171717172020202020202020202012121212131313131212-| 
A|--------------------------------------------------------------------------|
F|--------------------------------------------------------------------------|
C|--------------------------------------------------------------------------|x4
G|--------------------------------------------------------------------------|
C|--------------------------------------------------------------------------|

INTRO RIFF:

A|--------------------------------------------------------------|
A|--------------------------------------------------------------|
F|--------------------------------------------------------------|
C|--------------------------------------------------------------|x2
G|------------5-------------------------------5---8-------------|
C|-0-00-00-00---8-5-0000-00000000--0-00-00-00---8---0000-8----5-|
     .  .  ..       ...  ........    .  .  ..       ...

VERSE:

D|---------------------------------------------------------------------|
A|---------------------------------------------------------------------|
F|---------------------------------------------------------------------|
C|---------------------------------------------------------------------|x2
G|--------------------------------------------88887777-----------------|
C|-8888888885555555-0-00-00-33333333--88888888--------5555555577777777-|
                      .  .

CHORUS:

Rhythm/Bass:

D|------------------------------------------------------------------------------------------|
A|------------------------------------------------------------------------------------------|
F|------------------------------------------------------------------------------------------|
C|------------------------------------------------------------------------------------------|x4
G|-0-0-0-0-00-0--00-0-00000000-101010-101010--0-0-0-0-00-0--00-0-00000000-33333333-55555555-|
C|-0-0-0-0-00-0--00-0-00000000-888888-777777--0-0-0-0-00-0--00-0-00000000-33333333-55555555-|
           ..    ..   ........                        ..    ..   ........


Rhythm 2:

D|---------------------------------------------------------------------------| 
A|---------------------------------------------------------------------------|
F|---------------------------------------------------------------------------|
C|-7777777777777777-101010-9-555-77777-7777777777777777-101010-9-12-12121212-|x4
G|---------------------------------------------------------------------------|
C|-5555555555555555-88888--7-333-55555-5555555555555555-88888--7-10-10101010-|

Lead:

D|-171717171717171717171717171717172020202020202020202012121212131313131212-| 
A|--------------------------------------------------------------------------|
F|--------------------------------------------------------------------------|
C|--------------------------------------------------------------------------|x4
G|--------------------------------------------------------------------------|
C|--------------------------------------------------------------------------|

OUTRO:

D|-------------------------------------------------------------------------------------|
A|-------------------------------------------------------------------------------------|
F|-10----10----------10----10-----10------------10----10-------------------------------|
C|-10-------10---10--10-------10-----10---10----10-------10---10--10----10----10-------|x2
G|-8-----------8-----8-----------8------8----8--8-----------8-----8--------8-----8---8-|
C|-8-----------------8--------------------------8-----------------7----------7-----7---|
Tap to rate this tab
# A B C D E F G H I J K L M N O P Q R S T U V W X Y Z