Song name
# A B C D E F G H I J K L M N O P Q R S T U V W X Y Z

Misc Unsigned Bands - Richard Stallman - Free Software Song tab

There are two really easy ways to do it

A

-10-8-7----------------------------7/8--7-10---------10-8h7-|
--------10--12--13-12-10-8--8--10------------10--10---------|
------------------------------------------------------------|
------------------------------------------------------------|
------------------------------------------------------------|
------------------------------------------------------------|

B

-10-8-7------7--8-7---------------8--7-10---------10-8-7-|
--------10-----------10-8--8--10-----------10--10--------|
---------------------------------------------------------|
---------------------------------------------------------|
---------------------------------------------------------|
---------------------------------------------------------|

It sounds good for me, if you find any error please tell me!
Tap to rate this tab
# A B C D E F G H I J K L M N O P Q R S T U V W X Y Z