Song name
# A B C D E F G H I J K L M N O P Q R S T U V W X Y Z

Misc Unsigned Bands - Sorroweyes - Alone In The World tab

-------------------------------------------------------------------------------
			     Alone In The World - SorrowEyes
-------------------------------------------------------------------------------
Tabbed by: Ms.Sorrow Eye
E-mail:

Tuning:Standard

Intro:
e|-------------1-3-1----0----------------------------------------------------|
B|---0-1----1--3-3-3---0-1---------------------------------------------------|
G|--2------2---2-2-2--2------------------------------------------------------|
D|---------------------------------------------------------------------------|
A|-0------0------------------------------------------------------------------|
E|---------------------------------------------------------------------------|

Verse 1:
e|-------------1-3-1---------------------------------------------------------|
B|---0-1----1--3-3-3----0-1--------------------------------------------------|
G|--2------2---2-2-2---2-----------------------------------------------------|
D|---------------------------------------------------------------------------|
A|-0------0-----------0------------------------------------------------------|
E|---------------------------------------------------------------------------|

Chours:
e|-0--1--0-------------------------------------------------------------------|
B|-1--0--0-------------------------------------------------------------------|
G|-2--0--0-------------------------------------------------------------------|
D|-2--0--2-------------------------------------------------------------------|
A|-0--0--2-------------------------------------------------------------------|
E|-0--0--1-------------------------------------------------------------------|

Verse 2:
e|-0-0--0-0--1-3-1--0-0------------------------------------------------------|
B|-0-1--0-1--3-3-3--0-1------------------------------------------------------|
G|-2-2--2-2--2-2-2--2-2------------------------------------------------------|
D|-2-2--2-2---------2-2------------------------------------------------------|
A|---------------------------------------------------------------------------|
E|---------------------------------------------------------------------------|

Outro
e|----0------0-------0------0------------------------------------------------|
B|--1--1---1--1----0--0---0--0-----------------------------------------------|
G|---2--2---2--2----2--2---2--2----------------------------------------------|
D|---------------------------------------------------------------------------|
A|-0------0------------------------------------------------------------------|
E|----------------0------0---------------------------------------------------|

Lyrics:

Verse 1:
We are sitting,
just sitting
Waiting for something new.
Now we're standing,
just standing
Crying our faith out.

Chours 1:
I've always known things I shouldn't know.
Always the same song in my head, burn it out.
And you are so sweet so kill yourself.
Now we're just alone in the world.

Verse 2:
I'm watching,
just watching
a wall like a painting.
Now I'm screaming,
just screaming
the poison out from me.

Chours 2:
I've always known things I shouldn't know.
Always the same song in my head, let it hurt.
The reflection on the mirror turns to dust.
And now I'm just alone in the world.

World,
world,
world... 
************************************

| /   slide up
| \   slide down
| h   hammer-on
| p   pull-off
| ~   vibrato
| +   harmonic
| x   Mute note
| b   Bend
| pb  Pre-bend
| br  Bend release
| pbr Pre-bend release
| brb Bend release bend

************************************
Tap to rate this tab
# A B C D E F G H I J K L M N O P Q R S T U V W X Y Z