Song name
# A B C D E F G H I J K L M N O P Q R S T U V W X Y Z

Misc Unsigned Bands - Zelda A Link To The Past - Dark World Theme tab

Zelda a Link to the Past
Dark World Theme

listen and follow tempo here: http://www.youtube.com/watch?v=NJ1qkVMnlEY

Chicks will love you if you can play this. Just kidding they will think you are a nerd.




Tabbed by Death2Campers

Drop D/Capo 3rd fret
|-------------------|-------------------|
|-------------------|-------------------|
|-------------------|-------------------|
|----2--2--2-2-2--4-|----5--5--5-5-5--7-|
|-0-----3---------5-|-0-----7---------9-|
|-------------------|-------------------|


|-------------------|-------------------|
|-------------------|-------------------|
|-------------------|-------------------|
|----2--2--2-2-2--4-|----5--5--5-5-5--7-|
|-0-----3---------5-|-0-----7---------9-|
|-------------------|-------------------|


|----0--------------|----0--5--2h3--2-|
|-------------------|----------0------|
|-------------------|-2---------------|
|-7--------2--2-2-2-|-----------------|
|-------3--3--------|-----------------|
|-------------------|----------0------|


|-------------------|------0--------------|
|-------------------|-1h3-----------------|
|-------------------|------------2--------|
|----0--0-0-0--0--0-|---------------2-2-2-|
|-0-----------------|------------0--------|
|-------------------|---------3-----------|


|--------------------------|-------------|
|-------3--0h1p0-----------|-------------|
|-----------------0--------|--------0--2-|
|-2--2---------0--0--0-0-0-|-0--0--------|
|--------------------------|-------------|
|--------------------------|-------------|


|----------------|----0--------------------|
|----------------|-------0-----------------|
|----------------|-2-----------0--0-0-0--2-|
|-------2-2-2--4-|-------------2---------4-|
|-0--0-----------|----------0--------------|
|----------------|-------------------------|


|----0--------------|----0--5--2h3--2-|
|-------------------|----------0------|
|-2-----------------|-2---------------|
|----------2--2-2-2-|-----------------|
|-------3--3--------|-----------------|
|-------------------|----------0------|


|-------------------|------0--------------|
|-------------------|-1h3-----------------|
|-------------------|------------2--------|
|----0--0-0-0--0--0-|---------------2-2-2-|
|-0-----------------|------------0--------|
|-------------------|---------3-----------|



|--------------------------|-------------|
|-------3--0h1p0-----------|-------------|
|-----------------0--------|--------0--2-|
|-2--2---------0--0--0-0-0-|-0--0--------|
|--------------------------|-------------|
|--------------------------|-------------|


|-------------------|---------------|
|-------------------|--3p1--0-----0-|
|-------------------|----------2----|
|----2--2--2-2-2--4-|---------------|
|-0-----3-----------|---------------|
|-------------------|---------------|


|----------------|--0h2--3-----------------|
|----------------|-------------------------|
|----0--0-0-0--2-|-------------0--0-0-0--0-|
|----2---------4-|-------------------------|
|-0--------------|----------3--3-----------|
|----------------|-------------------------|


|-0--3--2p0--------------------|------0--------------------|
|------------3-----------------|-1h3-----------------------|
|-------2-------2--2-2-2--2--2-|------------2--2-2-2--2--2-|
|-------0----------------------|------------3--------------|
|------------------------------|---------------------------|
|------------------------------|---------3-----------------|


|-0-------------------------|-0h2--3-----------------|
|----3p1--0-----------------|------------------------|
|----0-------0--0-0-0--0--0-|------------0--0-0-0--0-|
|----0-------0--------------|------------------------|
|---------------------------|---------3--3-----------|
|---------------------------|------------------------|


|-0--3--2h3--5--------------------|-3-----------------|
|---------------------------------|-------------------|
|-------2-------2--2-2-2--2--2--2-|-------3--3-3-3--3-|
|-------0-------0-----------------|-------5-----------|
|---------------------------------|----3--3-----------|
|---------------------------------|-------------------|


|-2--3--2p0--2--------------------|-0-----------------|
|---------------------------------|----0--0---------2-|
|-------2-------2-----------------|----0--0--0-0-0--2-|
|-------0-------0--0-0-0--0--0--0-|-------------------|
|---------------------------------|-------------------|
|---------------------------------|-2-----------------|


|---------------------------|-5p0---0--------5-|
|-------3--3-----3--2--2----|-----3------------|
|-------4--4-----4--2--2----|------------------|
|-------------2-------------|------------------|
|---------------------------|------------------|
|-2--2--------------------2-|-3--------3--3--3-|


|-3p0-----0----------|-3----------------3-|
|------3-------------|----3p1--3----------|
|--------------------|--------------------|
|--------------------|--------------------|
|--------------------|--------------------|
|-2----------2--2--2-|-1----------1--1--1-|


|-2------------------|-0-----------------0-|
|----1p0--1----------|----0-----0----------|
|--------------------|-------3-------------|
|--------------------|---------------------|
|--------------------|-4-----------4--4--4-|
|-0----------0--0--0-|---------------------|


|-5p0-----0--------5/7----------|-0----------|
|------3-----------5/7--7--7--7-|-0--0--0--0-|
|-------------------------------|------------|
|-----------------------7--7--7-|-6--6--6--6-|
|-3----------3--3--3/6--6--6--6-|-0--0--7--7-|
|-------------------------------|------------|


|-------------------|-------------------|
|-------------------|-------------------|
|-------------------|-------------------|
|----2--2--2-2-2--4-|----5--5--5-5-5--7-|
|-0-----3---------5-|-0-----7---------9-|
|-------------------|-------------------|


|-------------------|-------------------|
|-------------------|-------------------|
|-------------------|-------------------|
|----2--2--2-2-2--4-|----5--5--5-5-5--7-|
|-0-----3---------5-|-0-----7---------9-|
|-------------------|-------------------|


|---------------------|------------------------|
|-------------------0-|-------------------0----|
|-2-----2-----0--2----|-2-----2-----0--2-----2-|
|-2-----2-------------|-2-----2--------------2-|
|-4--0--4--0--2-------|-4--0--4--0--2--------4-|
|---------------------|------------------------|



|-----------|
|-----------|
|-----------|
|-----------|
|---0---0---|
|-7---7---7-|
Tap to rate this tab
 
# A B C D E F G H I J K L M N O P Q R S T U V W X Y Z