Song name
# A B C D E F G H I J K L M N O P Q R S T U V W X Y Z

Misc Unsigned Bands - Rtwp Demo Tab 1 tab

-------------------------------------------------------------------------------
			     Demo 1 - Riding The White Pony
-------------------------------------------------------------------------------
Tabbed by: Zach101
E-mail: zachmitchell101@live.ca

Tuning: Standard

Intro

e|---10p0--------------------------------------------------------------------|
B|--------12p0-10p0----------------12p0-10p0---------------------------------|
G|-------------------------------------------12p0----------------------------|
D|------------------9---9---9---------------------12---12---12---------------|
A|------------------7---7---7---------------------9----9----9----------------|
E|-0----------------8---8---8----0----------------10---10---10---------------|

e|---10p0--------------------------------------------------------------------|
B|--------12p0-10p0----------------12p0-10p0---------------------------------|
G|-------------------------------------------12p0----------------------------|
D|------------------9---9---9---------------------12---12---12---------------|
A|------------------7---7---7---------------------9----9----9----------------|
E|-0----------------8---8---8----0----------------0----0----0----------------|

e|---12p0-10p0---------------------------------------------------------------|
B|-------------12p0----------------12p0-10p0---------------------------------|
G|-------------------------------------------12p0----------------------------|
D|------------------9---9---9---------------------12---12---12---------------|
A|------------------7---7---7---------------------9----9----9----------------|
E|-0----------------8---8---8----0----------------10---10---10---------------|

e|---10p0--------------------------------------------------------------------|
B|--------12p0-10p0----------------12p0-10p0---------------------------------|
G|-------------------------------------------12p0----------------------------|
D|------------------9---9---9---------------------12---12---12---------------|
A|------------------7---7---7---------------------9----9----9----------------|
E|-0----------------8---8---8----0----------------0----0----0----------------|

Verse

e|-------------------------------------------------------------|
B|---------0--------------0--------------0--------------0------|
G|-----------0--------------0--------------0--------------0----|
D|-------------4--------------4--------------4--------------4--|
A|-2---2----------2---2----------3---3----------3---3----------|
E|-0---0----------0---0----------0---0----------0---0----------|

Pre-Chorus   

e|----------------------------|      |--------------------|
B|----------------------------|      |--------------------|
G|------------7p0-5p0---------|      |-9---7---12-11--11--|
D|-2---2---2----------9p0-7p0-|      |-x---x---x--x---x---|
A|-2---2---2------------------| x3   |-7---5---10-9---9---|
E|-0---0---0------------------|      |--------------------|

Chorus (Intro riff)

Bridge

e|---------------------------------------------------------------------------|
B|---------------------------------------------------------------------------|
G|---12p0-11p0-----14p0-----11b12b11---12p0-11p0-----14p0------9---9---9-----|
D|-------------9p0------9p0----------------------9p0------9p0--x---x---x-----|
A|-------------------------------------------------------------7---7---7-----|
E|-0---------------------------------0-------------------------8---8---8-----|

e|------------------------------------------------------------------------------------|
B|------------------------------------------------------------------------------------|
G|------------------------------------------------------------------------------------|
D|-2---2---2-----222---222---2---2-----222-225---5---5-----555-555---5---5-----555-5--|
A|-2---2---2-----222---222---2---2-----222-223---3---3-----333-333---3---3-----333-3--|
E|-0---0---0-----000---000---0---0-----000-000---0---0-----000-000---0---0-----000-00-|

************************************

| /   slide up
| \   slide down
| h   hammer-on
| p   pull-off
| ~   vibrato
| +   harmonic
| x   Mute note
| b   Bend
| pb  Pre-bend
| br  Bend release
| pbr Pre-bend release
| brb Bend release bend

************************************
Tap to rate this tab
# A B C D E F G H I J K L M N O P Q R S T U V W X Y Z