Song name
# A B C D E F G H I J K L M N O P Q R S T U V W X Y Z

Misc Unsigned Bands - Our Foliage - Spruce Ave tab

-------------------------------------------------------------------------------
                             SPRUCE AVE - Our Foliage
-------------------------------------------------------------------------------

Tuning: Standard, capo 1
notes are relative to capo

Main Riff
sometimes plays the note in brackets INSTEAD of the note below it.

   Dmin7           C               Bbmaj9
e|-----------------------0---------------------------------------(0)-|
B|-------0-------0-----------4---0---------------0----------------0--|
G|---4-------4-------4-------------------2---------------2-----------|
D|-----------------------------------6-------6-------6--------6------|
A|-4---4---4---4---2---2---2---2---0---0---0---0---0---0---0---0-----|
E|-------------------------------------------------------------------|

before the (I was so young) you could chug a bit on this chord 
  Bbsus2
e|---------------------0-0-0-----|
B|---------------0-0-0-0-0-0-----|
G|-----------2-2-2-2-2-2-2-2-----|
D|-2-2-2-2-2-2-2-2-2-2-2-2-2-----|
A|-0-0-0-0-0-0-0-0-0-0-0-0-0-----|
E|-------------------------------|
   * * * * * * * * * * * * *                
I WAS SOOOOO YOUNG
 
   Dmin7           Dmin9           Bb+9(no3)       Bb9(no3)
e|-0-0-0-0-0-0-0-0-0-0-0-0-0-0-0-0-0-0-0-0-0-0-0-0-4-4-4-4-4-4-4-4----|
B|-0-0-0-0-0-0-0-0-0-0-0-0-0-0-0-0-0-0-0-0-0-0-0-0-0-0-0-0-0-0-0-0----|
G|-6-6-6-6-6-6-6-6-8-8-8-8-8-8-8-8-4-4-4-4-4-4-4-4-4-4-4-4-4-4-4-4----|
D|-6-6-6-6-6-6-6-6-6-6-6-6-6-6-6-6-2-2-2-2-2-2-2-2-2-2-2-2-2-2-2-2----|
A|-4-4-4-4-4-4-4-4-4-4-4-4-4-4-4-4-0-0-0-0-0-0-0-0-0-0-0-0-0-0-0-0----|
E|--------------------------------------------------------------------|

                      Gmin             Amin       Bb           F  
e|------------------|----------------------------------------------------|
B|------------------|---------0------------------------0----0------------|
G|------------------|----2--------2--------2----2------------------------|
D|------------------|----------------------------------------------------|
A|------------------|----------------------------------------------------|
E|-2-----4---5---0--|--2---2----2---2---4----4-----5-----5-----0---------|

Members from Old Gray 
http://ourfoliage.bandcamp.com/
Tap to rate this tab
 
# A B C D E F G H I J K L M N O P Q R S T U V W X Y Z