Song name
# A B C D E F G H I J K L M N O P Q R S T U V W X Y Z

Misc Unsigned Bands - Crywank - Gb Eating Gb Whilst Listening To Gb tab

GB Eating GB Whilst Listening to GB tab
by Crywank
tabbed by Arcelle

Enthusiastic ... /
Well if you don't want me ...
e|-------------------------------------|
B|------5-----5-----0-----0------------|
G|----6-----6-----6-----6---6---6---6--|
D|--4-----0-----4-----------7---7---7--|
A|--------------------5-----0---0---0--|
E|-------------------------------------|

Calm down ...
|-----------------------------------------|
|--------5---------5---------0------------|
|------6---------6---------6-----------6--|
|--4---------0---------4-------------7----|
|--------------------------------5--------|
|-----------------------------------------|

All the people you meet  ... (SPEED UP) /
Feelings for friends ...
|-------------------------------------------------------------------|
|------5-----5---------5-----5---------0-----0----------------------|
|----6-----6-----6---6-----6-----6---6-----6-----6-----6-----6------|
|--4-----4-----4---0-----0-----0---4-----4-----4-----7-----7-----7--|
|--------------------------------------------------5-----0-----0----|
|-------------------------------------------------------------------|

Would it be cruel, be cruel, be cruel ...
|-------------------------------------------------------------------|
|--------5-------0-------5-------0----------------------------------|
|----6-------6-------6-------6--------------------------------------|
|--4---4---4---4---4---4---4---4---4---4---4---4---4---4---4---4----|
|------------------------------------5---5---5---5---0---0---0---0--|
|-------------------------------------------------------------------|

I wouldn't want to hurt you ...
|-----------------------------------------------------------------|
|-----------------------------------------------------------------|
|------6-------6-------6-------6-------6-------6-------6-------6--|
|--4-4-4---4-4-4---4-4-4---4-4-4---4-4-4---4-4-4---4-4-4---4-4-4--|
|--5-5-5---5-5-5---5-5-5---5-5-5---0-0-0---0-0-0---0-0-0---0-0-0--|
|-----------------------------------------------------------------|

Why do I think these stupid thoughts ...
|-------------------------------------------------------------------|
|------------------------------------------5--5--5---5-5---5--5--5--|
|-----------6--6--6------------------------6--6--6---6-6---6--6--6--|
|-----------4--4--4------------------------4--4--4---4-4---4--4--4--|
|--5--5--5--5--5--5---------------0--0--0--0--0--0---0-0---0--0--0--|
|-------------------------------------------------------------------|

END ON -

I just want you in my life
|---------------------------------------------------|
|------------------------------------------5--5--5--|
|-----------6--6--6------------------------6--6--6--|
|-----------4--4--4------------------------4--4--4--|
|--5--5--5--5--5--5---------------0--0--0--0--0--0--|
|---------------------------------------------------|

A x6
B x2
A x5
B x2
C x6
D x4
C x4
D x4
E x4
F x3
G x1
Tap to rate this tab
 
# A B C D E F G H I J K L M N O P Q R S T U V W X Y Z