Song name
# A B C D E F G H I J K L M N O P Q R S T U V W X Y Z

Misc Unsigned Bands - 4th Floor - My First Suicide Note tab

Band: 4th Floor
Song: (My First) Suicide Note
Submitted by: Jay Pilar (guitarist for 4th Floor)

--BAND INFO--
Location: Moville, IA
CD Releases: (My First) Suicide Note CD Single
URL: -:-COMING SOON-:-

Standard tuning on an acoustic guitar

--INTRO--
E--------------------------
A--------------------------
D--------------------------
G----0---0-------0---0-----
B---3---3---3---3---3---3--
e--3---3---3---3---3---3---

--VERSE--
E--3--2--0--x--x--
A--2--0--2--3--x--
D--0--0--2--2--0--
G--0--0--0--0--2--
B--3--3--3--3--3--
e--3--3--3--3--3--

--OUTRO--
E--------------|------------------------
A--------------|------------------------
D--------------|------------------------
G----0---0-----|------------------------
B---3---3---3--|<<(FADE THIS UNTIL END)-
e--3---3---3---|------------------------
Tap to rate this tab
# A B C D E F G H I J K L M N O P Q R S T U V W X Y Z