Song name
# A B C D E F G H I J K L M N O P Q R S T U V W X Y Z

Misc Unsigned Bands - The Fallens - Virus tab

-------------------------------------------------------------------------------
			     Virus - The Fallens
-------------------------------------------------------------------------------
Tabbed by: Fyllen
Email: aiuqrana@hotmail.com
Band site: www.thefallens.kit.net
Tuning: DADGBe

Intro (End)

e|-----------------------------------------------------|
B|-----------------------------------------------------|
G|-----------------------------------------------------|
D|-0-0-0-0-0-0-0-0-3-3-3-3-4-4-4-4-5-5-5-5-5+-5+-5+-5+-|
A|-0-0-0-0-0-0-0-0-3-3-3-3-4-4-4-4-5-5-5-5-5+-5+-5+-5+-|
D|-0-0-0-0-0-0-0-0-3-3-3-3-4-4-4-4-5-5-5-5-5+-5+-5+-5+-|

Solo (Verse)

e|----------------------------------------------------|
B|----------------------------------------------------|
G|-0-12~---0-0-13-14-(X4)-End with>-0-12~---0-0-13~---|
D|----------------------------------------------------|
A|----------------------------------------------------|
D|----------------------------------------------------|

Chorus

e|----------------------------------------------|
B|----------------------------------------------|
G|----------------------------------------------|
D|-0-0-0-0-3-00-00-4/5-5-5------0-0-0-0-3-XX-XX-|
A|-0-0-0-0-3-00-00-4/5-5-5-(X2)-0-0-0-0-3-XX-XX-|
D|-0-0-0-0-3-00-00-4/5-5-5------0-0-0-0-3-XX-XX-|

Outro

e|--------------------------------------------|
B|--------------------------------------------|
G|--------------------------------------------|
D|-X-X-X-X-3-XX-XX-4-5------X-X-X-X-3-X-3-X-3-|
A|-X-X-X-X-3-XX-XX-4-5-(X2)-X-X-X-X-3-X-3-X-3-|
D|-X-X-X-X-3-XX-XX-4-5------X-X-X-X-3-X-3-X-3-|



| /  slide up
| \  slide down
| h  hammer-on
| p  pull-off
| ~  vibrato
| +  harmonic
| x  Mute note
===============================================================================
Tap to rate this tab
# A B C D E F G H I J K L M N O P Q R S T U V W X Y Z