Song name
# A B C D E F G H I J K L M N O P Q R S T U V W X Y Z

Misc Unsigned Bands - Established - Letters To You tab

I don't have a website just yet.  Our band's name is Established, and this is a
cool song that we play. originally written by finch, this is our cover.  We've
been a band for quite a while.  We're from Denver Co. and hope to have our name
on your site.  Please check this tab out, and E-mail me at kissmembr34@aol.com.
Thank you. By the way, I figured this tab out all on my own by ear.

intro
e|---------------------------------|
B|---------------------------------|
G|-7-----6-----9-----11-----11-----|
D|---0-----0-----0------0------0---|
A|-----0-----0-----0------0------0-|
E|---------------------------------|


intro end
e|---------------------------------|
B|---------------------------------|
G|-7-----6-----9-----9-9-----------|
D|---0-----0-----0-----------------|
A|-----0-----0-----0---------------|
E|---------------------------------|



verse
e|--0---------0----0---------------|
B|--3---------3----0---------------|
G|--2----2----0----2---------------|
D|--0----4----0----2---------------|
A|--0----4----2----0---------------|
E|-------x---------0---------------|




prechorus
e|----------0---0------------------|
B|----------0---0------------------|
G|--6---7---7---6------------------|
D|--x---x---7---7------------------|
A|--4---5---5---5------------------|
E|---------------------------------|





chorus
e|----------0----------------------|
B|----------3----------------------|
G|--4---7---2---6------------------|
D|--4---7---0---6------------------|
A|--2---5---0---4------------------|
E|------5--------------------------|






bridge
e|---------------------------------|
B|---------------------------------|
G|--9---7--------------------------|
D|--x---x--------------------------|
A|--7---5--------------------------|
E|---------------------------------|




end
e|---------------------------------|
B|---------------------------------|
G|---4-----------------------------|
D|---4-----------------------------|
A|---2-----------------------------|
E|---------------------------------|


sequence:
intro (11x)
intro end (1x)
verse (2x)
prechorus (2x)
chorus (2x)
intro (2x)
verse (2x)
prechorus (2x)
chorus (2x)
intro (6x)
bridge (4x)
chorus (2x)
end (1x)
Tap to rate this tab
# A B C D E F G H I J K L M N O P Q R S T U V W X Y Z