Guitaretab - guitar tabs
Song name
# A B C D E F G H I J K L M N O P Q R S T U V W X Y Z

Misc Unsigned Bands - Dirty Monkeys - The Day The Sun Died tab

{[intro]}
|-----------------------------------|
|-----------------------------------|
|-----------------------------------|
|----4-0-2---4-2-0---4-0-2---4-0----|
|--2-------0---------------------4--|
|------------------3-------2--------| x2

{[verse]}
|-------------------------------------------------------------------------|
|-------------------------------------------------------------------------|
|-------------------------------------44444444-66666666-------------------|
|-------------------------------------44444444-66666666-55555555-44444444-|
|-22222222-00000000-------------------22222222-44444444-55555555-44444444-|
|-------------------33333333-22222222-------------------33333333-22222222-|
[ Tab from: http://www.guitaretab.com/m/misc-unsigned-bands/46385.html ]
|-------------------------------------------------------------------------|
|----------------------------------------------------------------44444444-|
|-44444444-22222222-------------------44444444-66666666-77777777-44444444-|
|-44444444-22222222-55555555-44444444-44444444-66666666-77777777-22222222-|
|-22222222-00000000-55555555-44444444-22222222-44444444-55555555----------|
|-------------------33333333-22222222-------------------------------------|

{[chorus]}
|--------------------------------------------------|
|--------------------------------------------------|
|--------------------------------------------------|
|------4-2------------2----------------------------|
|-2222-----4-5------5---4-0------0-2-4-0-2222-2222-|
|--------------3333---------2222-------------------| x2

Order::
   intro
   verse
   verse
   chorus
   verse
   chorus
   intro (as the outro)

{[ Song:   The Day The Sun Stopped       ]}
{[ Artist: The Dirty Monkeys             ]}
{[ Site: http://thedirtymonkeys.cjb.net/ ]}

..:/[tabbed by: Dr.Delambre]\:..
Related for Dirty Monkeys - The Day The Sun Died tab
Advertisement will be closed in 10 seconds