Guitaretab - guitar tabs
Song name
# A B C D E F G H I J K L M N O P Q R S T U V W X Y Z

Misc Unsigned Bands - Some Kind Of Hero - Go Away tab

New Milwaukie based band-website-www.somekindofhero.tk
there newest song
Go Away            ( ) = mute   > = slide    T = tap   b = bend

Intro
E-----------------------
B-----------------------
G-----------------------
D-----------------------
A--1-1-3-3-1-1-1-3-1----
E-1-1-1-1-3-3-3-------1- x 4

Verse
E------------------------------------------
B------------------------------------------
G-------------------------(7)-7-7----------
D-------------------------(7)-7-7-7--7-7-7-
A-(2-2)-2-(2)-(4-4)-4-(4)-(5)-5-5-7--7-7-7-
E-(0-0)-0-(0)-(2-2)-2-(2)---------5--5-5-5- x 8

Chorus
E---------------------------
B---------------------------
G-----------------------7-7-
D-----------------------7-7-
A-4--4->-7--7-2-2->-----5-5-
E-2--2->-5--5-0-0->--------- x 4 

Verse x 6

Chorus x 4
[ Tab from: http://www.guitaretab.com/m/misc-unsigned-bands/46413.html ]
Solo
E-----0t------------------------------------------------------
B-------------------------------------------------------------
G---2---2-------2-2-------------------------------------------
D-4-------4-2-4-----4-2--4-2--------2-4--2---------2-4-2------
A-----------------------------4-2-4--------4-2-2-4--------4-2-
E------------------------------------------------------------- x2

Verse x8

Chorus x8

Ending

E-----------------------------------------------------------------
B-----------------------------------------------------------------
G-7-7-7-9-9-9-11-11-11-6-6-6-7-7-7-2-2-2-4-4-4-6-6-6-4-4-4-2-ring-
D-7-7-7-9-9-9-11-11-11-6-6-6-7-7-7-2-2-2-4-4-4-6-6-6-4-4-4-2-ring-
A-5-5-5-7-7-7--9--9--9-4-4-4-5-5-5-0-0-0-2-2-2-4-4-4-2-2-2-0-ring-
E-----------------------------------------------------------------

Outro
E-------------------------
B---------------------8-7-
G---7--79--9---7-7-7-----
D-7--7--7--7---9-9-9------
A-------------------------
E------------------------- x 4

E-------0-b-b-b-b--
B-0---0------------
G--1-1-------------
D---2--------------
A------------------
E------------------

End
Related for Some Kind Of Hero - Go Away tab