Song name
# A B C D E F G H I J K L M N O P Q R S T U V W X Y Z

Misc Unsigned Bands - Counterlife - House Arrest tab

counterlife is a band from eaton rapids, michigan and they are really cool so
you should add them to you database. there official website isnt done yet so i
cant put that here but they do really exist!

this is in drop d

-------------------------
-------------------------
-------------------------
-------------------------
-3-3-4-3-3-4-3-3-4-6-4-3-
------------------------- x2

verse
--------------
--------------
--5-----------
--5--5--7--3--
--3--5--7--3--
-----5--7--3-- play each note 8 times x2

-------------------------
-------------------------
-------------------------
-3-3-4-3-3-4-3-3-4-6-4-3-
-------------------------
-------------------------

play verse thing again

-------------------------|---------------------------|
-------------------------|---------------------------|
-------------------------|---------------------------|
-------------------------|-3-3-4-3-3-4-3-3-4-6-4-3-3-|
-3-3-4-3-3-4-3-3-4-6-4-3-|---------------------------|
-------------------------|---------------------------|x2 each

play the verse thing w/ a different beat


-------------------------
-------------------------
-------------------------
-------------------------
-3-3-4-3-3-4-3-3-4-6-4-3-
------------------------- x2

thats the whole song by the best band ever: COUNTERLIFE!!!!
Tap to rate this tab
# A B C D E F G H I J K L M N O P Q R S T U V W X Y Z