Song name
# A B C D E F G H I J K L M N O P Q R S T U V W X Y Z

Misc Unsigned Bands - Reduced To Clear - Who Am I tab

Help us improve GuitareTab! Take a short survey!
This is a new band hot on the streets, unknown to many. The band come from
monmouth, wales. They play punk/nu metal. Lead guitarist Rich Morris, Bass
Cabbage, drums Simon Morris, Vocals Rich Morris rythem guitarist David Bland.
-----------------------------------------------------------------------
			    Song Name: who am i
-----------------------------------------------------------------------
Tabbed by: Richy
Email: Mrichard778@aol.com

Tuning: eBGDAD

130 BPM      USE MODERATE DISTORTION

INTRO

e|----------------------------------------------------------------------|
B|----------------------------------------------------------------------|
G|----------------------------------------------------------------------|
D|-2--------2--------2--------2-------7-7-7-7---------------------------|
A|-2--------2--------2--------2-------7-7-7-7---------------------------|
D|-2--------2--------2--------2-------7-7-7-7---------------------------|
  |--P.M.-------------------------|


e|---------------------------------------------x2-|---------------------| 
B|------------------------------------------------|---------------------|
G|------------------------------------------------|---------------------|
D|-22222222-55555555-777777xx-101010-99-1010------|--2------------------|
A|-22222222-55555555-777777xx-101010-99-1010------|--2------------------|
D|-22222222-55555555-777777xx-101010-99-1010------|--2------------------|

VERSE

e|--------------------------------------x2-|-----------------------------| 
B|-----------------------------------------|-----------------------------|
G|-----------------------------------------|-----------------------------|
D|-22222222-55555555-77777777-55555555-----|--2---2---2---2---2-2--------|
A|-22222222-55555555-77777777-55555555-----|--2---2---2---2---2-2--------|
D|-22222222-55555555-77777777-55555555-----|--2---2---2---2---2-2--------|
  |---P.M.-----------------------------|      ^   ^   ^   ^

CHORUS

e|-----------------------------------------------x2-|-------------------| 
B|--------------------------------------------------|-------------------|
G|--------------------------------------------------|-------------------|
D|-2-2-2222--10-10-10101010--5-5-5555--7-7-7777-----|-2--------2-2-2----|
A|-2-2-2222--10-10-10101010--5-5-5555--7-7-7777-----|-2--------2-2-2----|
D|-2-2-2222--10-10-10101010--5-5-5555--7-7-7777-----|-2--------2-2-2----|
                                                               ^ ^ ^
VERSE

CHORUS 2

e|----------------------------------------------------------------------| x2
B|----------------------------------------------------------------------|
G|----------------------------------------------------------------------|
D|--2-2-2222--10-10-10101010--5-5-5555--7-7-7777------------------------|
A|--2-2-2222--10-10-10101010--5-5-5555--7-7-7777------------------------|
D|--2-2-2222--10-10-10101010--5-5-5555--7-7-7777------------------------|

e|----------------------------------------------------------------------|x2
B|----------------------------------------------------------------------|
G|----------------------------------------------------------------------|
D|--22222222-55555555-777777xx-101010-99-1010---------------------------|
A|--22222222-55555555-777777xx-101010-99-1010---------------------------|
D|--22222222-55555555-777777xx-101010-99-1010---------------------------|

MIDDEL 8

e|------------------x3--|-----------------------|------------------------|
B|----------------------|-----------------------|------------------------|
G|----------------------|-----------------------|------------------------|
D|--2-2/12----x-12------|--2-2/12\2----x-x-xx---|--X\\\\\\\--------------|
A|--2-2/12----x-12------|--2-2/12\2----x-x-xx---|--X\\\\\\\--------------|
D|--2-2/12----x-12------|--2-2/12\2----x-x-xx---|--X\\\\\\\--------------|
                                                      pick slide
CHOURUS 2


| /  slide up
| \  slide down
| h  hammer-on
| p  pull-off
| ~  vibrato
| +  harmonic
| x  Mute note
| ^  Dotted note
===============================================================================
Related for Reduced To Clear - Who Am I tab