Guitaretab - guitar tabs
Song name
# A B C D E F G H I J K L M N O P Q R S T U V W X Y Z

Misc Unsigned Bands - Hyper 25 - Sure tab

Artist: Hyper 25
Album: number 1
Title: Sure
 
The whole of Guitar 2 is with distortion. 
The whole of Guitar 1 is with non-distortion.

Intro
      Guitar 1
 E|------------|------------|------------|-----------|
 B|------------|------------|------------|-----------|
 G|------------|------------|------------|-----------|
 D|------------|------------|------------|-----------|   X 2
 A|------------|------------|------------|-----------|
 E|--0--0---5--|--0--0---3--|--0--0---1--|--1--3--5--|

      Guitar 2
 E|------------|------------|------------|-----------|
 B|------------|------------|------------|-----------|
 G|------------|------------|------------|-----------|
 D|------------|------------|------------|-----------|   X 1 
 A|--0--0---5--|--0--0---3--|--0--0---1--|--1--3--5--|
 E|--0--0---5--|--0--0---3--|--0--0---1--|--1--3--5--|



       
Verse  
       Guitar 1
 E|--------------|-----------|--------------|-----------|
 B|--------------|-----------|--------------|-----------|
 G|--------------|-----------|--------------|-----------|
 D|--0--0-3-0-5--|--0--3--5--|--0--0-3-0-5--|--0--3--5--|   X  4
 A|--------------|-----------|--------------|-----------|
 E|--------------|-----------|--------------|-----------|

                   Guitar 2
 E|--------------|-----------|--------------|-----------|
 B|--------------|-----------|--------------|-----------|
 G|--------------|-----------|--------------|-----------|
 D|--------------|-----------|--------------|-----------|  X  1
 A|--------------|-----------|--------------|-----------|
 E|--0--0-3-0-5--|--0--3--5--|--0--0-3-0-5--|--0--3--5--| 


        Guitar 2 
 E|--------------|-----------|--------------|-----------|
 B|--------------|-----------|--------------|-----------|
 G|--0--0-3-0-5--|--0--3--5--|--0--0-3-0-5--|--0--3--5--|
 D|--------------|-----------|--------------|-----------|  X  1
 A|--------------|-----------|--------------|-----------|
 E|--------------|-----------|--------------|-----------|

    
    




    Guitar 2
 E|--------------|-----------|--------------|-----------|
 B|--------------|-----------|--------------|-----------|
 G|--------------|-----------|--------------|-----------|
 D|--------------|-----------|--------------|-----------|  X  1
 A|--0--0-3-0-5--|--0--3--5--|--0--0-3-0-5--|--0--3--5--|
 E|--------------|-----------|--------------|-----------|



[ Tab from: http://www.guitaretab.com/m/misc-unsigned-bands/46982.html ]
     Guitar 2
 E|--------------|-----------|--------------|-----------|
 B|--0--0-3-0-5--|--0--3--5--|--0--0-3-0-5--|--0--3--5--|
 G|--------------|-----------|--------------|-----------|
 D|--------------|-----------|--------------|-----------|  X  1
 A|--------------|-----------|--------------|-----------|
 E|--------------|-----------|--------------|-----------|

 
    Guitar 1
 E|--0--0-3-0-5--|--0--3--5--|--0--0-3-0-5--|--0--3--5--|
 B|--0--0-3-0-5--|--0--3--5--|--0--0-3-0-5--|--0--3--5--|
 G|--------------|-----------|--------------|-----------|
 D|--------------|-----------|--------------|-----------|  X 2
 A|--------------|-----------|--------------|-----------|
 E|--------------|-----------|--------------|-----------|
 

     Guitar 2
 E|--------------|-----------|--------------|-----------|
 B|--------------|-----------|--------------|-----------|
 G|--------------|-----------|--------------|-----------|
 D|--------------|-----------|--------------|-----------|  X 2
 A|--0--0-3-0-5--|--0--3--5--|--0--0-3-0-5--|--0--3--5--|
 E|--0--0-3-0-5--|--0--3--5--|--0--0-3-0-5--|--0--3--5--|
 



 Chorus

    Guitar 1
 E|--------------|--------------|--------------|--------------|
 B|--------------|--------------|--------------|--------------|
 G|--0--0--6--4--|--0--0--1--3--|--0--0--5--3--|--0--0--2--4--|
 D|--------------|--------------|--------------|--------------|  X 2
 A|--------------|--------------|--------------|--------------|
 E|--------------|--------------|--------------|--------------|
 
    
    Guitar 2
 E|---------------|------------|---------------|------------|
 B|---------------|------------|---------------|------------|
 G|---------------|------------|---------------|------------|
 D|---------------|------------|---------------|------------|  X 2
 A|--7--7-9-7-11--|--7--9--11--|--7--7-9-7-11--|--7--9--11--|
 E|--7--7-9-7-11--|--7--9--11--|--7--7-9-7-11--|--7--9--11--|



  Outro

    Guitar 1
 E|--------------|-----------|-----------------|------------------|
 B|--------------|-----------|-----------------|------------------|  hold
 G|--5--5--3--0--|--5--3--0--|--5--5-----3--0--|--5----------3-5--| until fade
 D|--------------|-----------|--------5--------|-----5-4-3-4------|  X 1
 A|--------------|-----------|-----------------|------------------|
 E|--------------|-----------|-----------------|------------------|

    Guitar 2
 E|--------------|-----------|------------|-------------------|
 B|--------------|-----------|------------|-------------------|  hold 
 G|--------------|-----------|------------|-------------------| until fade 
 D|--------------|-----------|------------|-------------------|  X 1
 A|--5--5--3--0--|--5--3--0--|--7-7-9--5--|--3-3-3-3-1-1-1-0--|
 E|--5--5--3--0--|--5--3--0--|--7-7-9--5--|--3-3-3-3-1-1-1-0--|


This song was written by Sean Gregory and Daniel Joyce we are both 15 yrs old and
we love to play music, we hope that all of you out there like our song that we wrote.
Related for Hyper 25 - Sure tab