Song name
# A B C D E F G H I J K L M N O P Q R S T U V W X Y Z

Misc Unsigned Bands - Pro Unleashed - Beer Street tab

We are a vand from Canada. We dont have a website but if we get one ill e-mail
it to you. Our CD will be coming out in march 2004.

This is our sencend song on our Cd.

Intro
E-------------------------
B-------------------------
G-------------------------
D-------------------------
A-9-10-9-8-7-8-6-7-8-9-9--
E---------------------8-10 x2

Riff
E----------------------
B----------------------
G----0-----------------
D---3-2----------------
A--0---1----9--9--7--5-
E-2-----0---7--7--5--3- x3

Main Riff
E------------------------------
B------------------------------
G------------------------------
D-------0-------------------0--
A-----7---7---------------7---7
E-0-0-------0-0-8-9---0-0------ x2

It goes intro
        Riff
        Main Riff
        Riff
        Intro
Tap to rate this tab
# A B C D E F G H I J K L M N O P Q R S T U V W X Y Z