Song name
# A B C D E F G H I J K L M N O P Q R S T U V W X Y Z

Misc Unsigned Bands - New Beginning - Thursday Mornings tab

Thursday Mornings Tab

Song: Thursday Mornings
Band: New Beginning
Website: http://www.myspace.com/newbeginning
Date: 1/14/06


Intro
Guitar ..1 Repeats
e---2------2------2-----------------------|
b-----2------2------2---------------------|
g-------0------0--------------------------|
d-----------------------------------------|
a-----------------------------------------|
e-----------------------------------------|


Intro
Guitar ..2 Riff
e--3/7-7--5/8-8--7/10-10---8-7-5------------|
b-------------------------------------------|
g-------------------------------------------|
d-------------------------------------------|
a-------------------------------------------|
e-------------------------------------------|

Verses
e-------------------------------------------|
b-------------------------------------------|
g------0------0----------0------0-----------|
d----0-----0----0-----0------0---0----------|
a--2-----3--------3-2------0-------0--------|
e-------------------------------------------|

Hit the open string on the chorus
before you hit the '9' on the d string,
so you will be 'up stroking'

Chorus
e-----------------------------------------|
b-----------------------------------------|
g---------0-------------0-----------0-----|
d------9-9----------4--4-------5--5-------|
a--10------10-5----------0-3--------------|
e-----------------------------------------|

e----------------------------------------

b-----------------------------------------|
g-----------0-----------------------------|
d-------4--4------------------------------|
a--0-5--------5/10------------------------|
e-----------------------------------------|

Bridge
e-----------------------------------------|
b-----------------------------------------|
g---------0----------0-------------0------|
d------2----------0-------------7---------|
a---3-------3--2-------2/5-5--------------|
e-----------------------------------------|


e-----------------------------------------|
b-----------------------------------------|
g---------0-------------------------------|
d------9----9-----------------------------|
a---7----------7--------------------------|
e-----------------------------------------|
Tap to rate this tab
# A B C D E F G H I J K L M N O P Q R S T U V W X Y Z