Guitaretab - guitar tabs
Song name
# A B C D E F G H I J K L M N O P Q R S T U V W X Y Z

Misc Unsigned Bands - Vaginal Incest - 123 Fuck tab

http://www.vaginalincest.de

Band: Vaginal Incest
Song: 123 Fuck

Tabber: John Cukras
Email: riffreaper@yahoo.com

Tuning: normal

Riff 1:
E----------------------------------------------------------------
B----------------------------------------------------------------
G------------------------9-10-9-8--------------------------------
D----------------------------------------------------------------
A--------7~---------7~---------------------------7~-----------7~-
E-3-000------3-000------------------3-000000000-------3-00000----

It's not really a different riff, but they parts are different
so I seperated them.
[ Tab from: http://www.guitaretab.com/m/misc-unsigned-bands/48030.html ]
E-------------------------------------------------------------------------------------------------------------
B-------------------------------------------------------------------------------------------------------------
G-----------------------9-10-9-8-------------------------------------------------9-10-9-8---------------------
D--------9/3--------------------------------------------9/5-------------------------------------------------2-
A--------7/1--------7~-------------------7~--------5-7--7/3--------------5----------------------7~--5555555-2-
E-0-00-------000000---------------00000--------000-3-5--------000000-3h4-3-0000---------------------3333333-0-
Related for Vaginal Incest - 123 Fuck tab
Advertisement will be closed in 10 seconds