Song name
# A B C D E F G H I J K L M N O P Q R S T U V W X Y Z

Misc Unsigned Bands - Blondatta - Ill tab

    Blondatta is a new punk-rock band from Spain who´s got a new two-side 
    single, "No Wave - Johnny´s coming". It was created in January, 
    2004.They don´t have official web page, but the leader´s e-mail is the   
    following:         mrc19@hotmail.com 

    ILL
    --- 
    by blondatta ( the best ever punk band!!)


    GUITAR 1:
    E----------------------------------------------------------------------
    B----------------------------------------------------------------------
    G----------------------------------------------------------------------
    D----------------------------------------------------------------------
    A---------7-----8-----7-----5---3-5-7-------7-----8-----7-----5---3-2--
    E-----0-0---0-0---0-0---0-0---0---------0-0---0-0---0-0---0-0---0------
          . .   . .   . .   . .   .         . .   . .   . .   . .   . 
   
    WHILE GUITAR 1 PLAYS THE RIFF ONCE, GUITAR 2 PLAYS THIS TWICE:     
    GUITAR2:
    E---------------------------------------
    B---------------------------------------
    G---------------------------------------
    D-----2-2-2-2-2-2-2-2--2-2-2-2-2-2-2-2--
    A-----2-2-2-2-2-2-2-2--2-2-2-2-2-2-2-2--
    E-----0-0-0-0-0-0-0-0--0-0-0-0-0-0-0-0--
          . . . . . . . .  . . . . . . . .

    THIS IS THE RIFF FOR THE VOCALS:

    E----------------------------------------------------------------------
    B----------------------------------------------------------------------  
    G--9-9-9-9-9-9-9-9--7-9--9---9-9-9--7-9--9---9-9-9--7-9--12---12-12-12-
    D--9-9-9-9-9-9-9-9--7-9--9---9-9-9--7-9--9---9-9-9--7-9--12---12-12-12- 
    A--7-7-7-7-7-7-7-7--5-7--7---7-7-7--5-7--7---7-7-7--5-7--10---10-10-10-
    E----------------------------------------------------------------------  
       . . . . . . . .           . . .           . . .            .  .  .    

       Ill!       If you dare    -    to compare    -    sex and love
                                                                            
    E----------------------------------------------------------------------
    B----------------------------------------------------------------------  
    G--9-9-9-9-9-9-9-9--7-9--9---9-9-9--7-9--9---9-9-9--7-9--12---12-12-12-
    D--9-9-9-9-9-9-9-9--7-9--9---9-9-9--7-9--9---9-9-9--7-9--12---12-12-12- 
    A--7-7-7-7-7-7-7-7--5-7--7---7-7-7--5-7--7---7-7-7--5-7--10---10-10-10-
    E----------------------------------------------------------------------  
       . . . . . . . .           . . .           . . .            .  .  .    
       
       Ill!   They tie you down  - you cannot breathe -  don´t let you out...
    
     

    AND THIS IS THE CHORUS RIFF:
    E----------------------------------------------------------------------
    B----------------------------------------------------------------------  
    G-----2-2---2-----2-2--3-----2-2---2-----2-2---------------------------
    D-----2-2---2-----2-2--3-----2-2---2-----2-2---5-----------------------
    A-----0-0---0-----0-0--1-----0-0---0-----0-0---5-----------------------
    E----------------------------------------------3-----------------------  
          . .         . .        . .         . .                            
  
         You`re just the mirror of their dreams! ...Ill!

   (and it goes on to the end).
Tap to rate this tab
 
# A B C D E F G H I J K L M N O P Q R S T U V W X Y Z