Song name
# A B C D E F G H I J K L M N O P Q R S T U V W X Y Z

Misc Unsigned Bands - Over Time - Its All Fucked Up tab

This is a new band from Belgium,
check out http://users.pandora.be/oldschoolcrew/overtime/ for more info

Bas intro:
G|-------------------------------||
D|-------------------------------||
A|--2-2-2-2-1-1-1-1-2-2-2-2/5-4--||
E|-------------------------------||X2

na den tweede keer:
E|------------------------||
B|------------------------||
G|--4---------------4-4~--||
D|--4---gepiep------4-4~--||
A|--2---------------2-2~--||
E|------------------------||

E|-------------------------------||
B|-------------------------------||
G|--4-4-4-4-3-3-3-3-4-4-4-4-7-6--||
D|--4-4-4-4-3-3-3-3-4-4-4-4-7-6--||
A|--2-2-2-2-1-1-1-1-2-2-2-2-5-4--||
E|-------------------------------|| veel keer

Bridge:
E|----------------------||
B|----------------------||
G|--4-4--7-7------------||
D|--4-4--7-7--7-7--8-8--||
A|--2-2--5-5--7-7--8-8--||
E|------------5-5--6-6--||

Trug da:
E|-------------------------------||
B|-------------------------------||
G|--4-4-4-4-3-3-3-3-4-4-4-4-7-6--||
D|--4-4-4-4-3-3-3-3-4-4-4-4-7-6--||
A|--2-2-2-2-1-1-1-1-2-2-2-2-5-4--||
E|-------------------------------|| veel keer

einde:
E|------||
B|------||
G|--4~--||
D|--4~--||
A|--2~--||
E|------||
Tap to rate this tab
 
# A B C D E F G H I J K L M N O P Q R S T U V W X Y Z