Song name
# A B C D E F G H I J K L M N O P Q R S T U V W X Y Z

Misc Unsigned Bands - Neuroplay - Untitled tab

country: USA
band: Eric Fura - bass
taylor cramer - guitar
bill daigler - drums

site: www.freewebs.com/taylorjustineric


verse:
E------------------------------------------------
B------------------------------------------------
G------------------------------------------------
D-------------6-6-6-6-6-6-8-8-8-8-8-7-6-6-6-6-6-6
A-6-6-6-6-6-6-4-4-4-4-4-4-6-6-6-6-6-5-4-4-4-4-4-4
E-4-4-4-4-4-4------------------------------------

you play this over and over again until the chorus


chorus:
E-------------------------------------------------
B-------------------------------------------------
G-------------------------------------------------
D-------------6-6-6-6-6-6-8-8-8-8-8b-7-6-6-6-6-6-6
A-6-6-6-6-6-6-4-4-4-4-4-4-6-6-6-6-6b-5-4-4-4-4-4-4
E-4-4-4-4-4-4-------------------------------------


verse 2:
E------------------------------------------------
B------------------------------------------------
G------------------------------------------------
D-------------6-6-6-6-6-6-8-8-8-8-8-7-6-6-6-6-6-6
A-6-6-6-6-6-6-4-4-4-4-4-4-6-6-6-6-6-5-4-4-4-4-4-4
E-4-4-4-4-4-4------------------------------------

play this over and over until the solo

solo:
E-------------9-9-9-9-9-9-11-11-11-11-11-10-9-9-9-9-9
B-9-9-9-9-9-9-------------11-11-11-11-11-10-9-9-9-9-9
G----------------------------------------------------
D----------------------------------------------------   
A----------------------------------------------------
E----------------------------------------------------

E-------------9-9-9-9-9-9-11-11-11-11-11-10-9-9-9-9-9
B-9-9-9-9-9-9-------------11-11-11-11-11-10-9-9-9-9-9
G----------------------------------------------------
D----------------------------------------------------   
A----------------------------------------------------
E----------------------------------------------------

E-5h6p5h6p5---3h4p3h4p3--1h2p1h2p1----------------------------------
B----------------------------------1h2p1h2p1h2p1h2p1h2p1h2p1h2p1h2p1
G-------------------------------------------------------------------
D-------------------------------------------------------------------    
A-------------------------------------------------------------------
E-------------------------------------------------------------------

E-5h6p5h6p5---3h4p3h4p3--1h2p1h2p1----------------------------------
B----------------------------------1h2p1h2p1h2p1h2p1h2p1h2p1h2p1h2p1
G-------------------------------------------------------------------
D-------------------------------------------------------------------    
A-------------------------------------------------------------------
E-------------------------------------------------------------------

E-------------9-9-9-9-9-9-11-11-11-11-11-10-9-9-9-9-9
B-9-9-9-9-9-9-------------11-11-11-11-11-10-9-9-9-9-9
G----------------------------------------------------
D----------------------------------------------------
A----------------------------------------------------
E----------------------------------------------------

verse 3:
E----------------------------------------------------
B----------------------------------------------------
G----------------------------------------------------
D-------------6-6-6-6-6-6-8-8-8-8-8-7-6-6-6-6-6-6---6 
A-6-6-6-6-6-6-4-4-4-4-4-4-6-6-6-6-6-5-4-4-4-4-4-4-6-4
E-4-4-4-4-4-4-------------------------------------4--


hold the last chord in that riff for several seconds and end with 
one hit of 

E---
B---
G---
D-6-
A-4-
E---
Tap to rate this tab
# A B C D E F G H I J K L M N O P Q R S T U V W X Y Z