Guitaretab - guitar tabs
Song name
# A B C D E F G H I J K L M N O P Q R S T U V W X Y Z

Misc Unsigned Bands - Flickerblade - Melancoly Heart Of A Young Man tab

-------------------------------------------------------------------------------
			     Melancoly Heart of a Young Man - Flickerblade
-------------------------------------------------------------------------------
Tabbed by:Kevin Wentworth
Email: Crapinkev@hotmail.com

Tuning: Normal               VERY EASY SONG



This is an uprising band with very simple guitar, but very complex lyrics.
They are Washington based.


intro
e|---------------------------------------------------------------------------|
B|---------------------------------------------------------------------------|
G|---0----0------0----0---X6-------------------------------------------------|
D|--4----4------4----4-------------------------------------------------------|
A|-2----2------3----3--------------------------------------------------------|
E|0----0------0----0---------------------------------------------------------|

e|--0-0-0-0-0-X6------0-0-0-0-0-0-x6-0-0-0-0-0-x6----------------------------|
B|--3-3-3-3-3---------3-3-3-3-3-3----0-0-0-0-0-------------------------------|
G|--0-0-0-0-0---------0-0-0-0-0-0----0-0-0-0-0-------------------------------|
D|--2-2-2-2-2---------2-2-2-2-2-2----2-2-2-2-2-------------------------------|
A|--3-3-3-3-3---------0-0-0-0-0-0----0-0-0-0-0-------------------------------|
E|0-0-0-0-0-0-------0-0-0-0-0-0-0----0-0-0-0-0-------------------------------|

[ Tab from: http://www.guitaretab.com/m/misc-unsigned-bands/48593.html ]
e|---------------------------------------------------------------------------|
B|---------------------------------------------------------------------------|
G|---0----0------0----0---X6-------------------------------------------------|
D|--4----4------4----4-------------------------------------------------------|
A|-2----2------3----3--------------------------------------------------------|
E|0----0------0----0---------------------------------------------------------|

e|--0-0-0-0-0-X6------0-0-0-0-0-0-x6-0-0-0-0-0-x6----------------------------|
B|--3-3-3-3-3---------3-3-3-3-3-3----0-0-0-0-0-------------------------------|
G|--0-0-0-0-0---------0-0-0-0-0-0----0-0-0-0-0-------------------------------|
D|--2-2-2-2-2---------2-2-2-2-2-2----2-2-2-2-2-------------------------------|
A|--3-3-3-3-3---------0-0-0-0-0-0----0-0-0-0-0-------------------------------|
E|0-0-0-0-0-0-------0-0-0-0-0-0-0----0-0-0-0-0-------------------------------|

e|---------------------------------------------------------------------------|
B|---------------------------------------------------------------------------|
G|---0----0------0----0---X6-------------------------------------------------|
D|--4----4------4----4-------------------------------------------------------|
A|-2----2------3----3--------------------------------------------------------|
E|0----0------0----0---------------------------------------------------------|

e|--0-0-0-0-0-X6------0-0-0-0-0-0-x6-0-0-0-0-0-x6----------------------------|
B|--3-3-3-3-3---------3-3-3-3-3-3----0-0-0-0-0-------------------------------|
G|--0-0-0-0-0---------0-0-0-0-0-0----0-0-0-0-0-------------------------------|
D|--2-2-2-2-2---------2-2-2-2-2-2----2-2-2-2-2-------------------------------|
A|--3-3-3-3-3---------0-0-0-0-0-0----0-0-0-0-0-------------------------------|
E|0-0-0-0-0-0-------0-0-0-0-0-0-0----0-0-0-0-0-------------------------------|
Related for Flickerblade - Melancoly Heart Of A Young Man tab
Advertisement will be closed in 10 seconds