Song name
# A B C D E F G H I J K L M N O P Q R S T U V W X Y Z

Misc Unsigned Bands - Fallen Autumn - One Day In Fall tab

                         One Day in Fall

Band: Fallen Autumn
web site: www.angelfire.com/rock3/fallenautumn/
Country: Canada

this is a song that i wrote it's pretty easy it's more if a tragicly hip kinda song it's a pretty slow beat.

  Intro/verse
E----------------------------------------------------------------
B----------------------------------------------------------------
G----------------------------------------------------------------    
D--2---2---2---4---4---4---4---4---4---0---0---0-----------------
A----0---0---0---0---0---0---2---2---2---2---2---2---------------
E----------------------------------------------------------------


    Chorus
E----------------------------------------------3-2---------------
B----------------------------------------------3-3-2-------------
G----------------------------------------------2-2-2-------------
D-2-2-2-2-----------------5---5---5---5--------2-2-2-------------
A-2-2-2-2--5---5---5---5--3---3---3---3--------------------------
E-0-0-0-0--3---3---3---3-----------------------------------------



E------------------------------------------3-2-3-2-3-2-----------
B------------------------------------------3-3-3-3-3-3-----------
G------------------------------------------2-2-2-2-2-2-----------
D-2-2-2-2-----------------5---5---5---5--------------------------
A-2-2-2-2--5---5---5---5--3---3---3---3--------------------------
E-0-0-0-0--3---3---3---3-----------------------------------------


Intro   X2
Verse   X4
Chorus  X4
Verse   X4
Chorus  X4
Verse   X4
Chorus  X4
Verse   X4
Chorus  X4


   End on
E---------
B---------
G---------
D--2------
A--2------
E--0------

Any suggestions or questions email Bobby D at fallenautumn1@hotmail.com
Tap to rate this tab
# A B C D E F G H I J K L M N O P Q R S T U V W X Y Z