Song name
# A B C D E F G H I J K L M N O P Q R S T U V W X Y Z

Misc Unsigned Bands - Seafaring Platypus - You Are Always There tab

Seafaring Platypus is Ryan Dolsen- Lead Guitar
Justin Lorenowicz-Bass
Jonathan Hall- Drums
URL: none at the moment
Country: Canada


Bass Tab : You are always there

Verse 1:
G:------------------------
D:------------------------
A:------------------------
E:1--1--3--3---5----------
B:------------------------

G:------------------------
D:------------------------
A:1-1--3-3--5-------------
E:------------------------
B:------------------------

G:------------------------
D:------------------------
A:7-5-3-1-----------------
E:------------------------
B:------------------------

G:------------------------
D:------------------------
A:0--0----3---------------
E:-----4------------------
B:------------------------

pause

G:------------------------
D:------------------------
A:------------------------
E:5-5---2---pause--5-5---2
B:------------------------

Chorus:

G:------------------------
D:------------------------
A:-----------0------------
E:1--1-3--3---------------
B:------------------------

G:------------------------
D:-----------0------------
A:1--1-3--3---------------
E:------------------------
B:------------------------

G:------------------------
D:------------------------
A:0-5--3-2--3-0-----------
E:------------------------
B:------------------------

G:------------------------
D:------------------------
A:0--3--5---5--3--0-------
E:------------------------
B:------------------------

pause

Verse 2:

G:------------------------
D:------------------------
A:------------------------
E:1--1--3--3---5----------
B:------------------------

G:------------------------
D:------------------------
A:0-5-3-1-3---------------
E:------------------------
B:------------------------

G:------------------------
D:------------------------
A:------------------------
E:1-1-3-5-----------------
B:------------------------

G:------------------------
D:------------------------
A:7-5-2-------------------
E:------------------------
B:------------------------

Solo:

G:------------------------
D:------------------------
A:----------1-1-3-3-5-----
E:1-1-3-3-5---------------
B:------------------------

Chorus:

G:------------------------
D:------------------------
A:------------------------
E:1-1-3-3-5---------------
B:------------------------

G:------------------------
D:------------------------
A:1-1-3-3-5---------------
E:------------------------
B:------------------------

G:------------------------
D:------------------------
A:------------------------
E:7-5-3-0-----------------
B:------------------------

G:------------------------
D:------------------------
A:------------------------
E:1-1-3-3-3-5-------------
B:------------------------
Tap to rate this tab
# A B C D E F G H I J K L M N O P Q R S T U V W X Y Z